  0
SECTION
  2
HEADER
  9
$ACADVER
  1
AC1012
  9
$DWGCODEPAGE
  3
dos932
  9
$INSBASE
 10
0.0
 20
0.0
 30
0.0
  9
$EXTMIN
 10
19.3
 20
16.25
 30
0.0
  9
$EXTMAX
 10
817.5
 20
583.7499999999998
 30
0.0
  9
$LIMMIN
 10
0.0
 20
0.0
  9
$LIMMAX
 10
841.0
 20
594.0
  9
$ORTHOMODE
 70
     1
  9
$REGENMODE
 70
     1
  9
$FILLMODE
 70
     1
  9
$QTEXTMODE
 70
     0
  9
$MIRRTEXT
 70
     1
  9
$DRAGMODE
 70
     2
  9
$LTSCALE
 40
1.0
  9
$OSMODE
 70
  3071
  9
$ATTMODE
 70
     1
  9
$TEXTSIZE
 40
12.5
  9
$TRACEWID
 40
1.0
  9
$TEXTSTYLE
  7
STANDARD
  9
$CLAYER
  8
0
  9
$CELTYPE
  6
BYLAYER
  9
$CECOLOR
 62
   256
  9
$CELTSCALE
 40
1.0
  9
$DELOBJ
 70
     1
  9
$DISPSILH
 70
     0
  9
$DIMSCALE
 40
1.0
  9
$DIMASZ
 40
4.799999999999999
  9
$DIMEXO
 40
1.0
  9
$DIMDLI
 40
7.0
  9
$DIMRND
 40
0.0
  9
$DIMDLE
 40
0.0
  9
$DIMEXE
 40
3.0
  9
$DIMTP
 40
0.1
  9
$DIMTM
 40
0.1
  9
$DIMTXT
 40
7.0
  9
$DIMCEN
 40
0.0
  9
$DIMTSZ
 40
0.0
  9
$DIMTOL
 70
     0
  9
$DIMLIM
 70
     0
  9
$DIMTIH
 70
     0
  9
$DIMTOH
 70
     0
  9
$DIMSE1
 70
     0
  9
$DIMSE2
 70
     0
  9
$DIMTAD
 70
     1
  9
$DIMZIN
 70
     8
  9
$DIMBLK
  1

  9
$DIMASO
 70
     1
  9
$DIMSHO
 70
     1
  9
$DIMPOST
  1

  9
$DIMAPOST
  1
"
  9
$DIMALT
 70
     0
  9
$DIMALTD
 70
     2
  9
$DIMALTF
 40
0.03937
  9
$DIMLFAC
 40
1.0
  9
$DIMTOFL
 70
     1
  9
$DIMTVP
 40
0.0
  9
$DIMTIX
 70
     0
  9
$DIMSOXD
 70
     0
  9
$DIMSAH
 70
     0
  9
$DIMBLK1
  1

  9
$DIMBLK2
  1

  9
$DIMSTYLE
  2
SANKYO
  9
$DIMCLRD
 70
   256
  9
$DIMCLRE
 70
   256
  9
$DIMCLRT
 70
   256
  9
$DIMTFAC
 40
0.71
  9
$DIMGAP
 40
1.3
  9
$DIMJUST
 70
     0
  9
$DIMSD1
 70
     0
  9
$DIMSD2
 70
     0
  9
$DIMTOLJ
 70
     1
  9
$DIMTZIN
 70
     0
  9
$DIMALTZ
 70
     0
  9
$DIMALTTZ
 70
     0
  9
$DIMFIT
 70
     3
  9
$DIMUPT
 70
     0
  9
$DIMUNIT
 70
     2
  9
$DIMDEC
 70
     4
  9
$DIMTDEC
 70
     4
  9
$DIMALTU
 70
     2
  9
$DIMALTTD
 70
     2
  9
$DIMTXSTY
  7
STANDARD
  9
$DIMAUNIT
 70
     0
  9
$LUNITS
 70
     2
  9
$LUPREC
 70
     4
  9
$SKETCHINC
 40
1.0
  9
$FILLETRAD
 40
0.0
  9
$AUNITS
 70
     0
  9
$AUPREC
 70
     0
  9
$MENU
  1
.
  9
$ELEVATION
 40
0.0
  9
$PELEVATION
 40
0.0
  9
$THICKNESS
 40
0.0
  9
$LIMCHECK
 70
     0
  9
$BLIPMODE
 70
     0
  9
$CHAMFERA
 40
2.5
  9
$CHAMFERB
 40
2.5
  9
$CHAMFERC
 40
0.0
  9
$CHAMFERD
 40
0.0
  9
$SKPOLY
 70
     0
  9
$TDCREATE
 40
2455110.161493194
  9
$TDUPDATE
 40
2460273.437561736
  9
$TDINDWG
 40
1.6899390856
  9
$TDUSRTIMER
 40
1.6897700463
  9
$USRTIMER
 70
     1
  9
$ANGBASE
 50
0.0
  9
$ANGDIR
 70
     0
  9
$PDMODE
 70
     0
  9
$PDSIZE
 40
0.0
  9
$PLINEWID
 40
0.0
  9
$COORDS
 70
     1
  9
$SPLFRAME
 70
     0
  9
$SPLINETYPE
 70
     6
  9
$SPLINESEGS
 70
     8
  9
$ATTDIA
 70
     1
  9
$ATTREQ
 70
     1
  9
$HANDLING
 70
     1
  9
$HANDSEED
  5
6C7
  9
$SURFTAB1
 70
     6
  9
$SURFTAB2
 70
     6
  9
$SURFTYPE
 70
     6
  9
$SURFU
 70
     6
  9
$SURFV
 70
     6
  9
$UCSNAME
  2

  9
$UCSORG
 10
0.0
 20
0.0
 30
0.0
  9
$UCSXDIR
 10
1.0
 20
0.0
 30
0.0
  9
$UCSYDIR
 10
0.0
 20
1.0
 30
0.0
  9
$PUCSNAME
  2

  9
$PUCSORG
 10
0.0
 20
0.0
 30
0.0
  9
$PUCSXDIR
 10
1.0
 20
0.0
 30
0.0
  9
$PUCSYDIR
 10
0.0
 20
1.0
 30
0.0
  9
$USERI1
 70
     0
  9
$USERI2
 70
     0
  9
$USERI3
 70
     0
  9
$USERI4
 70
     0
  9
$USERI5
 70
     0
  9
$USERR1
 40
0.0
  9
$USERR2
 40
0.0
  9
$USERR3
 40
0.0
  9
$USERR4
 40
0.0
  9
$USERR5
 40
0.0
  9
$WORLDVIEW
 70
     1
  9
$SHADEDGE
 70
     3
  9
$SHADEDIF
 70
    70
  9
$TILEMODE
 70
     1
  9
$MAXACTVP
 70
    48
  9
$PINSBASE
 10
0.0
 20
0.0
 30
0.0
  9
$PLIMCHECK
 70
     0
  9
$PEXTMIN
 10
-1.000000000000000E+20
 20
-1.000000000000000E+20
 30
-1.000000000000000E+20
  9
$PEXTMAX
 10
1.000000000000000E+20
 20
1.000000000000000E+20
 30
1.000000000000000E+20
  9
$PLIMMIN
 10
0.0
 20
0.0
  9
$PLIMMAX
 10
420.0
 20
297.0
  9
$UNITMODE
 70
     0
  9
$VISRETAIN
 70
     1
  9
$PLINEGEN
 70
     0
  9
$PSLTSCALE
 70
     1
  9
$TREEDEPTH
 70
  3020
  9
$PICKSTYLE
 70
     1
  9
$CMLSTYLE
  2
STANDARD
  9
$CMLJUST
 70
     0
  9
$CMLSCALE
 40
1.0
  9
$SAVEIMAGES
 70
     1
  0
ENDSEC
  0
SECTION
  2
CLASSES
  0
CLASS
  1
ACDBDICTIONARYWDFLT
  2
AcDbDictionaryWithDefault
  3
AutoCAD 2000
 90
    32768
280
     0
281
     0
  0
CLASS
  1
ACDBPLACEHOLDER
  2
AcDbPlaceHolder
  3
AutoCAD 2000
 90
    32768
280
     0
281
     0
  0
CLASS
  1
LAYOUT
  2
AcDbLayout
  3
AutoCAD 2000
 90
    32768
280
     0
281
     0
  0
CLASS
  1
DICTIONARYVAR
  2
AcDbDictionaryVar
  3
AutoCAD 2000
 90
    32768
280
     0
281
     0
  0
CLASS
  1
LONG_TRANSACTION
  2
AcDbLongTransaction
  3
AutoCAD 2000
 90
    32768
280
     0
281
     0
  0
CLASS
  1
LWPOLYLINE
  2
AcDbPolyline
  3
AutoCAD 2000
 90
    32768
280
     0
281
     1
  0
CLASS
  1
HATCH
  2
AcDbHatch
  3
AutoCAD 2000
 90
    32768
280
     0
281
     1
  0
CLASS
  1
XRECORD
  2
AcDbXrecord
  3
AutoCAD 2000
 90
    32768
280
     0
281
     0
  0
ENDSEC
  0
SECTION
  2
TABLES
  0
TABLE
  2
VPORT
  5
8
330
0
100
AcDbSymbolTable
 70
     2
  0
VPORT
  5
6C2
330
8
100
AcDbSymbolTableRecord
100
AcDbViewportTableRecord
  2
*ACTIVE
 70
     0
 10
0.0
 20
0.0
 11
1.0
 21
1.0
 12
367.55047606307
 22
296.4840165761533
 13
0.0
 23
0.0
 14
2.5
 24
2.5
 15
10.0
 25
10.0
 16
0.0
 26
0.0
 36
1.0
 17
0.0
 27
0.0
 37
0.0
 40
646.6084851358284
 41
2.062992125984251
 42
50.0
 43
0.0
 44
0.0
 50
0.0
 51
0.0
 71
     0
 72
   100
 73
     1
 74
     1
 75
     0
 76
     0
 77
     0
 78
     0
  0
ENDTAB
  0
TABLE
  2
LTYPE
  5
5
330
0
100
AcDbSymbolTable
 70
    25
  0
LTYPE
  5
13
330
5
100
AcDbSymbolTableRecord
100
AcDbLinetypeTableRecord
  2
BYBLOCK
 70
     0
  3

 72
    65
 73
     0
 40
0.0
  0
LTYPE
  5
14
330
5
100
AcDbSymbolTableRecord
100
AcDbLinetypeTableRecord
  2
BYLAYER
 70
     0
  3

 72
    65
 73
     0
 40
0.0
  0
LTYPE
  5
15
330
5
100
AcDbSymbolTableRecord
100
AcDbLinetypeTableRecord
  2
CONTINUOUS
 70
     0
  3
Solid line
 72
    65
 73
     0
 40
0.0
  0
LTYPE
  5
22
330
5
100
AcDbSymbolTableRecord
100
AcDbLinetypeTableRecord
  2
CENTER
 70
     0
  3
Center ____ _ ____ _ ____ _ ____ _ ____ _ ____
 72
    65
 73
     4
 40
50.8
 49
31.75
 74
     0
 49
-6.349999999999999
 74
     0
 49
6.349999999999999
 74
     0
 49
-6.349999999999999
 74
     0
  0
LTYPE
  5
23
330
5
100
AcDbSymbolTableRecord
100
AcDbLinetypeTableRecord
  2
CENTER2
 70
     0
  3
Center (.5x) ___ _ ___ _ ___ _ ___ _ ___ _ ___
 72
    65
 73
     4
 40
28.57499999999999
 49
19.05
 74
     0
 49
-3.174999999999999
 74
     0
 49
3.174999999999999
 74
     0
 49
-3.174999999999999
 74
     0
  0
LTYPE
  5
24
330
5
100
AcDbSymbolTableRecord
100
AcDbLinetypeTableRecord
  2
PHANTOM
 70
     0
  3
Phantom ______  __  __  ______  __  __  ______
 72
    65
 73
     6
 40
63.5
 49
31.75
 74
     0
 49
-6.349999999999999
 74
     0
 49
6.349999999999999
 74
     0
 49
-6.349999999999999
 74
     0
 49
6.349999999999999
 74
     0
 49
-6.349999999999999
 74
     0
  0
LTYPE
  5
25
330
5
100
AcDbSymbolTableRecord
100
AcDbLinetypeTableRecord
  2
PHANTOM2
 70
     0
  3
Phantom (.5x) ___ _ _ ___ _ _ ___ _ _ ___ _ _
 72
    65
 73
     6
 40
31.75
 49
15.875
 74
     0
 49
-3.174999999999999
 74
     0
 49
3.174999999999999
 74
     0
 49
-3.174999999999999
 74
     0
 49
3.174999999999999
 74
     0
 49
-3.174999999999999
 74
     0
  0
LTYPE
  5
26
330
5
100
AcDbSymbolTableRecord
100
AcDbLinetypeTableRecord
  2
DASHED
 70
     0
  3
Dashed __ __ __ __ __ __ __ __ __ __ __ __ __ _
 72
    65
 73
     2
 40
19.05
 49
12.7
 74
     0
 49
-6.349999999999999
 74
     0
  0
LTYPE
  5
27
330
5
100
AcDbSymbolTableRecord
100
AcDbLinetypeTableRecord
  2
DASHED2
 70
     0
  3
Dashed (.5x) _ _ _ _ _ _ _ _ _ _ _ _ _ _ _ _ _
 72
    65
 73
     2
 40
9.525
 49
6.349999999999999
 74
     0
 49
-3.174999999999999
 74
     0
  0
LTYPE
  5
28
330
5
100
AcDbSymbolTableRecord
100
AcDbLinetypeTableRecord
  2
ZIGZAG
 70
     0
  3
Zig zag /\/\/\/\/\/\/\/\/\/\/\/\/\/\/\/\/\/\/\/
 72
    65
 73
     6
 40
21.84654
 49
0.00254
 74
     0
 49
-5.08
 74
     0
 49
0.508
 74
     0
 49
-10.16
 74
     0
 49
1.016
 74
     0
 49
-5.08
 74
     0
  0
LTYPE
  5
29
330
5
100
AcDbSymbolTableRecord
100
AcDbLinetypeTableRecord
  2
AM_ISO02W050
 70
     0
  3
__ __ __ __ __ __ __ __ __ __ __ __ __ __ __
 72
    65
 73
     2
 40
7.5
 49
6.0
 74
     0
 49
-1.5
 74
     0
  0
LTYPE
  5
2A
330
5
100
AcDbSymbolTableRecord
100
AcDbLinetypeTableRecord
  2
AMCONSTR
 70
     0
  3
_______________________
 72
    65
 73
     2
 40
9999.0
 49
9999.0
 74
     0
 49
0.0
 74
     0
  0
LTYPE
  5
2B
330
5
100
AcDbSymbolTableRecord
100
AcDbLinetypeTableRecord
  2
AMZIGZAG
 70
     0
  3
/\/-/\/-/\/-/\/-/\/-/\/
 72
    65
 73
     2
 40
11.00009999999999
 49
0.0001
 74
     0
 49
-11.0
 74
     0
  0
LTYPE
  5
2C
330
5
100
AcDbSymbolTableRecord
100
AcDbLinetypeTableRecord
  2
ACJISTGB
 70
     0
  3
__ . . __ . .
 72
    65
 73
     6
 40
9.0
 49
4.0
 74
     0
 49
-1.0
 74
     0
 49
1.0
 74
     0
 49
-1.0
 74
     0
 49
1.0
 74
     0
 49
-1.0
 74
     0
  0
LTYPE
  5
2D
330
5
100
AcDbSymbolTableRecord
100
AcDbLinetypeTableRecord
  2
ACJISTGL
 70
     0
  3
_ _ _ _ _
 72
    65
 73
     2
 40
3.0
 49
2.0
 74
     0
 49
-1.0
 74
     0
  0
LTYPE
  5
2E
330
5
100
AcDbSymbolTableRecord
100
AcDbLinetypeTableRecord
  2
ACISOWELD
 70
     0
  3
_ _ _ _ _
 72
    65
 73
     2
 40
3.0
 49
2.0
 74
     0
 49
-1.0
 74
     0
  0
LTYPE
  5
2F
330
5
100
AcDbSymbolTableRecord
100
AcDbLinetypeTableRecord
  2
ACISOTGB
 70
     0
  3
__ . . __ . .
 72
    65
 73
     6
 40
9.0
 49
4.0
 74
     0
 49
-1.0
 74
     0
 49
1.0
 74
     0
 49
-1.0
 74
     0
 49
1.0
 74
     0
 49
-1.0
 74
     0
  0
LTYPE
  5
30
330
5
100
AcDbSymbolTableRecord
100
AcDbLinetypeTableRecord
  2
ACISOTGL
 70
     0
  3
_ _ _ _ _
 72
    65
 73
     2
 40
3.0
 49
2.0
 74
     0
 49
-1.0
 74
     0
  0
LTYPE
  5
31
330
5
100
AcDbSymbolTableRecord
100
AcDbLinetypeTableRecord
  2
HIDDEN
 70
     0
  3
Hidden __ __ __ __ __ __ __ __ __ __ __ __ __ _
 72
    65
 73
     2
 40
9.525
 49
6.349999999999999
 74
     0
 49
-3.174999999999999
 74
     0
  0
LTYPE
  5
32
330
5
100
AcDbSymbolTableRecord
100
AcDbLinetypeTableRecord
  2
AM_ISO08W050
 70
     0
  3
____ . ____ . ____ . ____ . ____ . ____ . ____
 72
    65
 73
     4
 40
18.0
 49
12.0
 74
     0
 49
-1.5
 74
     0
 49
3.0
 74
     0
 49
-1.5
 74
     0
  0
LTYPE
  5
33
330
5
100
AcDbSymbolTableRecord
100
AcDbLinetypeTableRecord
  2
AM_ISO09W050
 70
     0
  3
_____ . . _____ . . _____ . . ____ .. ____
 72
    65
 73
     6
 40
22.5
 49
12.0
 74
     0
 49
-1.5
 74
     0
 49
3.0
 74
     0
 49
-1.5
 74
     0
 49
3.0
 74
     0
 49
-1.5
 74
     0
  0
LTYPE
  5
34
330
5
100
AcDbSymbolTableRecord
100
AcDbLinetypeTableRecord
  2
AM_ISO08W050X2
 70
     0
  3
__ . __ . __ . __ . __ . __
 72
    65
 73
     4
 40
9.0
 49
6.0
 74
     0
 49
-0.75
 74
     0
 49
1.5
 74
     0
 49
-0.75
 74
     0
  0
LTYPE
  5
35
330
5
100
AcDbSymbolTableRecord
100
AcDbLinetypeTableRecord
  2
AM_ISO02W050X2
 70
     0
  3
 _ _ _ _ _ _ _ _ _ _ _ _
 72
    65
 73
     2
 40
3.75
 49
3.0
 74
     0
 49
-0.75
 74
     0
  0
LTYPE
  5
36
330
5
100
AcDbSymbolTableRecord
100
AcDbLinetypeTableRecord
  2
HIDDEN2
 70
     0
  3
Hidden (.5x) _ _ _ _ _ _ _ _ _ _ _ _ _ _ _ _ _
 72
    65
 73
     2
 40
0.1875
 49
0.125
 74
     0
 49
-0.0625
 74
     0
  0
LTYPE
  5
37
330
5
100
AcDbSymbolTableRecord
100
AcDbLinetypeTableRecord
  2
AMZIGZAG2
 70
     0
  3
/\/-/\/-/\/-/\/-/\/-/\/
 72
    65
 73
     2
 40
0.4401
 49
0.0001
 74
     0
 49
-0.4400000000000001
 74
     0
  0
LTYPE
  5
38
330
5
100
AcDbSymbolTableRecord
100
AcDbLinetypeTableRecord
  2
ACANSTGB
 70
     0
  3
__ . . __ . .
 72
    65
 73
     6
 40
0.354331
 49
0.15748
 74
     0
 49
-0.03937
 74
     0
 49
0.03937
 74
     0
 49
-0.03937
 74
     0
 49
0.03937
 74
     0
 49
-0.03937
 74
     0
  0
LTYPE
  5
39
330
5
100
AcDbSymbolTableRecord
100
AcDbLinetypeTableRecord
  2
ACANSTGL
 70
     0
  3
_ _ _ _ _
 72
    65
 73
     2
 40
0.11811
 49
0.07874
 74
     0
 49
-0.03937
 74
     0
  0
ENDTAB
  0
TABLE
  2
LAYER
  5
2
330
0
100
AcDbSymbolTable
 70
    11
  0
LAYER
  5
10
330
2
100
AcDbSymbolTableRecord
100
AcDbLayerTableRecord
  2
0
 70
     0
 62
     7
  6
CONTINUOUS
  0
LAYER
  5
3A
330
2
100
AcDbSymbolTableRecord
100
AcDbLayerTableRecord
  2
KI1
 70
     0
 62
     7
  6
CONTINUOUS
  0
LAYER
  5
3B
330
2
100
AcDbSymbolTableRecord
100
AcDbLayerTableRecord
  2
TS
 70
     0
 62
     6
  6
DASHED2
  0
LAYER
  5
3C
330
2
100
AcDbSymbolTableRecord
100
AcDbLayerTableRecord
  2
SU
 70
     0
 62
     3
  6
CONTINUOUS
  0
LAYER
  5
3D
330
2
100
AcDbSymbolTableRecord
100
AcDbLayerTableRecord
  2
MJ
 70
     0
 62
     2
  6
CONTINUOUS
  0
LAYER
  5
3E
330
2
100
AcDbSymbolTableRecord
100
AcDbLayerTableRecord
  2
CL
 70
     0
 62
     4
  6
CENTER2
  0
LAYER
  5
3F
330
2
100
AcDbSymbolTableRecord
100
AcDbLayerTableRecord
  2
OS
 70
     0
 62
     2
  6
CONTINUOUS
  0
LAYER
  5
40
330
2
100
AcDbSymbolTableRecord
100
AcDbLayerTableRecord
  2
KI2
 70
     0
 62
     4
  6
CONTINUOUS
  0
LAYER
  5
41
330
2
100
AcDbSymbolTableRecord
100
AcDbLayerTableRecord
  2
TE
 70
     0
 62
     6
  6
CONTINUOUS
  0
LAYER
  5
42
330
2
100
AcDbSymbolTableRecord
100
AcDbLayerTableRecord
  2
PH
 70
     0
 62
     6
  6
PHANTOM2
  0
LAYER
  5
43
330
2
100
AcDbSymbolTableRecord
100
AcDbLayerTableRecord
  2
WK
 70
     0
 62
     7
  6
CONTINUOUS
  0
ENDTAB
  0
TABLE
  2
STYLE
  5
3
330
0
100
AcDbSymbolTable
 70
    10
  0
STYLE
  5
11
330
3
100
AcDbSymbolTableRecord
100
AcDbTextStyleTableRecord
  2
STANDARD
 70
     0
 40
0.0
 41
0.8299999999999998
 50
0.0
 71
     0
 42
12.5
  3
romans.shx
  4
extfont.shx
  0
STYLE
  5
44
330
3
100
AcDbSymbolTableRecord
100
AcDbTextStyleTableRecord
  2

 70
     1
 40
0.0
 41
1.0
 50
0.0
 71
     0
 42
2.5
  3
ltypeshp.shx
  4

  0
STYLE
  5
45
330
3
100
AcDbSymbolTableRecord
100
AcDbTextStyleTableRecord
  2
ACJISTS
 70
     0
 40
1.0
 41
1.0
 50
0.0
 71
     0
 42
2.5
  3
isocp.shx
  4
extfont.shx
  0
STYLE
  5
46
330
3
100
AcDbSymbolTableRecord
100
AcDbTextStyleTableRecord
  2
ACJISGDT
 70
     0
 40
0.0
 41
1.0
 50
0.0
 71
     0
 42
2.5
  3
amgdt.shx
  4

  0
STYLE
  5
47
330
3
100
AcDbSymbolTableRecord
100
AcDbTextStyleTableRecord
  2
ACISOTS
 70
     0
 40
1.0
 41
1.0
 50
0.0
 71
     0
 42
2.5
  3
isocp.shx
  4
extfont.shx
  0
STYLE
  5
48
330
3
100
AcDbSymbolTableRecord
100
AcDbTextStyleTableRecord
  2
ACISOGDT
 70
     0
 40
0.0
 41
1.0
 50
0.0
 71
     0
 42
2.5
  3
amgdt.shx
  4

  0
STYLE
  5
49
330
3
100
AcDbSymbolTableRecord
100
AcDbTextStyleTableRecord
  2
CONVERT
 70
     0
 40
0.0
 41
1.0
 50
0.0
 71
     0
 42
2.5
  3
monotxt.shx
  4
extfont.shx
  0
STYLE
  5
4A
330
3
100
AcDbSymbolTableRecord
100
AcDbTextStyleTableRecord
  2

 70
     1
 40
0.0
 41
1.0
 50
0.0
 71
     0
 42
12.5
  3
genltshp.shx
  4

  0
STYLE
  5
4B
330
3
100
AcDbSymbolTableRecord
100
AcDbTextStyleTableRecord
  2
ACANSTS
 70
     0
 40
1.0
 41
1.0
 50
0.0
 71
     0
 42
12.5
  3
romans.shx
  4
extfont.shx
  0
STYLE
  5
4C
330
3
100
AcDbSymbolTableRecord
100
AcDbTextStyleTableRecord
  2
ACANSGDT
 70
     0
 40
0.0
 41
1.0
 50
0.0
 71
     0
 42
12.5
  3
amgdt.shx
  4

  0
ENDTAB
  0
TABLE
  2
VIEW
  5
6
330
0
100
AcDbSymbolTable
 70
     6
  0
VIEW
  5
9B
330
6
100
AcDbSymbolTableRecord
100
AcDbViewTableRecord
  2
AM_VIEW1
 70
     0
 40
297.5
 10
-194.33547
 20
148.2499999999999
 41
457.3290599999999
 11
0.0
 21
0.0
 31
1.0
 12
0.0
 22
0.0
 32
0.0
 42
50.0
 43
0.0
 44
0.0
 50
0.0
 71
     0
  0
VIEW
  5
9C
330
6
100
AcDbSymbolTableRecord
100
AcDbViewTableRecord
  2
AM_VIEW2
 70
     0
 40
297.5
 10
189.3354699999999
 20
148.2499999999999
 41
457.3290599999999
 11
0.0
 21
0.0
 31
1.0
 12
0.0
 22
0.0
 32
0.0
 42
50.0
 43
0.0
 44
0.0
 50
0.0
 71
     0
  0
VIEW
  5
9D
330
6
100
AcDbSymbolTableRecord
100
AcDbViewTableRecord
  2
AM_VIEW3
 70
     0
 40
297.5
 10
-194.33547
 20
-149.2499999999999
 41
457.3290599999999
 11
0.0
 21
0.0
 31
1.0
 12
0.0
 22
0.0
 32
0.0
 42
50.0
 43
0.0
 44
0.0
 50
0.0
 71
     0
  0
VIEW
  5
9E
330
6
100
AcDbSymbolTableRecord
100
AcDbViewTableRecord
  2
AM_VIEW4
 70
     0
 40
297.5
 10
189.3354699999999
 20
-149.2499999999999
 41
457.3290599999999
 11
0.0
 21
0.0
 31
1.0
 12
0.0
 22
0.0
 32
0.0
 42
50.0
 43
0.0
 44
0.0
 50
0.0
 71
     0
  0
VIEW
  5
9F
330
6
100
AcDbSymbolTableRecord
100
AcDbViewTableRecord
  2
AM_VIEW5
 70
     0
 40
297.5
 10
-2.5
 20
-0.5
 41
457.3290599999999
 11
0.0
 21
0.0
 31
1.0
 12
0.0
 22
0.0
 32
0.0
 42
50.0
 43
0.0
 44
0.0
 50
0.0
 71
     0
  0
VIEW
  5
A0
330
6
100
AcDbSymbolTableRecord
100
AcDbViewTableRecord
  2
AM_VIEW6
 70
     0
 40
594.99405
 10
-2.5
 20
-0.5
 41
914.648973
 11
0.0
 21
0.0
 31
1.0
 12
0.0
 22
0.0
 32
0.0
 42
50.0
 43
0.0
 44
0.0
 50
0.0
 71
     0
  0
ENDTAB
  0
TABLE
  2
UCS
  5
7
330
0
100
AcDbSymbolTable
 70
     0
  0
ENDTAB
  0
TABLE
  2
APPID
  5
9
330
0
100
AcDbSymbolTable
 70
    46
  0
APPID
  5
12
330
9
100
AcDbSymbolTableRecord
100
AcDbRegAppTableRecord
  2
ACAD
 70
     0
  0
APPID
  5
4D
330
9
100
AcDbSymbolTableRecord
100
AcDbRegAppTableRecord
  2
MCAD_NO_VIS
 70
     0
  0
APPID
  5
4E
330
9
100
AcDbSymbolTableRecord
100
AcDbRegAppTableRecord
  2
ACAD_TEMP_GRAPHIC
 70
     0
  0
APPID
  5
4F
330
9
100
AcDbSymbolTableRecord
100
AcDbRegAppTableRecord
  2
ACATTRIBSERVICES
 70
     0
  0
APPID
  5
50
330
9
100
AcDbSymbolTableRecord
100
AcDbRegAppTableRecord
  2
GENIUS_GENDIMSH_14
 70
     0
  0
APPID
  5
51
330
9
100
AcDbSymbolTableRecord
100
AcDbRegAppTableRecord
  2
GENIUS_GENODEF_13
 70
     0
  0
APPID
  5
52
330
9
100
AcDbSymbolTableRecord
100
AcDbRegAppTableRecord
  2
GENIUS_GENOENT_13
 70
     0
  0
APPID
  5
53
330
9
100
AcDbSymbolTableRecord
100
AcDbRegAppTableRecord
  2
GENIUS_GENOBJ-N-TIT_13
 70
     0
  0
APPID
  5
54
330
9
100
AcDbSymbolTableRecord
100
AcDbRegAppTableRecord
  2
GENIUS_GENOLIS_13
 70
     0
  0
APPID
  5
55
330
9
100
AcDbSymbolTableRecord
100
AcDbRegAppTableRecord
  2
GENIUS_GENTITLE_13
 70
     0
  0
APPID
  5
56
330
9
100
AcDbSymbolTableRecord
100
AcDbRegAppTableRecord
  2
GENIUS_GENOREF_13
 70
     0
  0
APPID
  5
57
330
9
100
AcDbSymbolTableRecord
100
AcDbRegAppTableRecord
  2
GENIUS_GENSCREG_15
 70
     0
  0
APPID
  5
58
330
9
100
AcDbSymbolTableRecord
100
AcDbRegAppTableRecord
  2
GENIUS_GENOBJ-N-SDF_13
 70
     0
  0
APPID
  5
59
330
9
100
AcDbSymbolTableRecord
100
AcDbRegAppTableRecord
  2
GENIUS_GENOBJ-N-REV_13
 70
     0
  0
APPID
  5
5A
330
9
100
AcDbSymbolTableRecord
100
AcDbRegAppTableRecord
  2
GENIUS_GENOBJ-N-RSSYM_13
 70
     0
  0
APPID
  5
5B
330
9
100
AcDbSymbolTableRecord
100
AcDbRegAppTableRecord
  2
GENIUS_GENSYMENT_13
 70
     0
  0
APPID
  5
5C
330
9
100
AcDbSymbolTableRecord
100
AcDbRegAppTableRecord
  2
GENIUS_GENSCSYM_13
 70
     0
  0
APPID
  5
5D
330
9
100
AcDbSymbolTableRecord
100
AcDbRegAppTableRecord
  2
GENIUS_GENOBJ-N-CEN_13
 70
     0
  0
APPID
  5
5E
330
9
100
AcDbSymbolTableRecord
100
AcDbRegAppTableRecord
  2
GENIUS_GENOBJ-N-FIL_13
 70
     0
  0
APPID
  5
5F
330
9
100
AcDbSymbolTableRecord
100
AcDbRegAppTableRecord
  2
GENIUS_GENBH_13
 70
     0
  0
APPID
  5
60
330
9
100
AcDbSymbolTableRecord
100
AcDbRegAppTableRecord
  2
GENIUS_GENOBJ-NBEHI-BHF_13
 70
     0
  0
APPID
  5
61
330
9
100
AcDbSymbolTableRecord
100
AcDbRegAppTableRecord
  2
GENIUS_GENFIL_13
 70
     0
  0
APPID
  5
62
330
9
100
AcDbSymbolTableRecord
100
AcDbRegAppTableRecord
  2
GENIUS_GENOBJ-N-CHA_13
 70
     0
  0
APPID
  5
63
330
9
100
AcDbSymbolTableRecord
100
AcDbRegAppTableRecord
  2
GENIUS_GENOBJ-NBEHI-BHB_13
 70
     0
  0
APPID
  5
64
330
9
100
AcDbSymbolTableRecord
100
AcDbRegAppTableRecord
  2
GENIUS_GENOBJ-N-CRS_13
 70
     0
  0
APPID
  5
65
330
9
100
AcDbSymbolTableRecord
100
AcDbRegAppTableRecord
  2
GENIUS_GENDTOL_13
 70
     0
  0
APPID
  5
66
330
9
100
AcDbSymbolTableRecord
100
AcDbRegAppTableRecord
  2
AD_DRAW
 70
     0
  0
APPID
  5
67
330
9
100
AcDbSymbolTableRecord
100
AcDbRegAppTableRecord
  2
DESIGNERASSEMBLIES
 70
     0
  0
APPID
  5
68
330
9
100
AcDbSymbolTableRecord
100
AcDbRegAppTableRecord
  2
ACADM_DIM_EDIT
 70
     0
  0
APPID
  5
69
330
9
100
AcDbSymbolTableRecord
100
AcDbRegAppTableRecord
  2
AMDT_DM_ADJ
 70
     0
  0
APPID
  5
6A
330
9
100
AcDbSymbolTableRecord
100
AcDbRegAppTableRecord
  2
ACAD_PSEXT
 70
     0
  0
APPID
  5
6B
330
9
100
AcDbSymbolTableRecord
100
AcDbRegAppTableRecord
  2
ACAECLAYERSTANDARD
 70
     0
  0
APPID
  5
6C
330
9
100
AcDbSymbolTableRecord
100
AcDbRegAppTableRecord
  2
DCO15
 70
     0
  0
APPID
  5
6D
330
9
100
AcDbSymbolTableRecord
100
AcDbRegAppTableRecord
  2
GENIUS_GENREC_14
 70
     0
  0
APPID
  5
6E
330
9
100
AcDbSymbolTableRecord
100
AcDbRegAppTableRecord
  2
GENIUS_GENOBJ-N-REC_13
 70
     0
  0
APPID
  5
6F
330
9
100
AcDbSymbolTableRecord
100
AcDbRegAppTableRecord
  2
GENIUS_GENOBJ-N-HTC_13
 70
     0
  0
APPID
  5
70
330
9
100
AcDbSymbolTableRecord
100
AcDbRegAppTableRecord
  2
GENIUS_GENHATCH_13
 70
     0
  0
APPID
  5
71
330
9
100
AcDbSymbolTableRecord
100
AcDbRegAppTableRecord
  2
ACAD_DSTYLE_DIMARC_LENGTH_SYMBO
 70
     0
  0
APPID
  5
72
330
9
100
AcDbSymbolTableRecord
100
AcDbRegAppTableRecord
  2
ACAD_DSTYLE_DIMFLIPARROW_WHICH_
 70
     0
  0
APPID
  5
73
330
9
100
AcDbSymbolTableRecord
100
AcDbRegAppTableRecord
  2
ACAD_DSTYLE_DIMBREAK
 70
     0
  0
APPID
  5
74
330
9
100
AcDbSymbolTableRecord
100
AcDbRegAppTableRecord
  2
ACAD_DSTYLE_DIMJAG
 70
     0
  0
APPID
  5
75
330
9
100
AcDbSymbolTableRecord
100
AcDbRegAppTableRecord
  2
ACAD_NAV_VCDISPLAY
 70
     0
  0
APPID
  5
76
330
9
100
AcDbSymbolTableRecord
100
AcDbRegAppTableRecord
  2
ACAD_DSTYLE_DIM_LINETYPE
 70
     0
  0
APPID
  5
77
330
9
100
AcDbSymbolTableRecord
100
AcDbRegAppTableRecord
  2
ACAD_DSTYLE_DIM_EXT1_LINETYPE
 70
     0
  0
APPID
  5
78
330
9
100
AcDbSymbolTableRecord
100
AcDbRegAppTableRecord
  2
ACAD_DSTYLE_DIM_EXT2_LINETYPE
 70
     0
  0
APPID
  5
79
330
9
100
AcDbSymbolTableRecord
100
AcDbRegAppTableRecord
  2
ACAD_EXEMPT_FROM_CAD_STANDARDS
 70
     0
  0
ENDTAB
  0
TABLE
  2
DIMSTYLE
  5
A
330
0
100
AcDbSymbolTable
 70
    33
  0
DIMSTYLE
105
7A
330
A
100
AcDbSymbolTableRecord
100
AcDbDimStyleTableRecord
  2
AM_JIS
 70
     0
  3

  4
"
  5

  6

  7

 40
1.0
 41
1.6
 42
1.0
 43
7.0
 44
1.0
 45
0.0
 46
0.0
 47
0.1
 48
0.1
140
2.5
141
0.0
142
0.0
143
0.03937
144
1.0
145
0.0
146
0.71
147
0.625
 71
     0
 72
     0
 73
     0
 74
     0
 75
     0
 76
     0
 77
     1
 78
     8
170
     0
171
     2
172
     1
173
     0
174
     0
175
     0
176
   256
177
   256
178
   256
270
     2
271
     4
272
     4
273
     2
274
     2
340
11
275
     0
280
     0
281
     0
282
     0
283
     1
284
     8
285
     8
286
     8
287
     5
288
     0
  0
DIMSTYLE
105
7B
330
A
100
AcDbSymbolTableRecord
100
AcDbDimStyleTableRecord
  2
AM_JIS$3
 70
     0
  3

  4
"
  5

  6

  7

 40
1.0
 41
1.6
 42
1.0
 43
7.0
 44
1.0
 45
0.0
 46
0.0
 47
0.1
 48
0.1
140
2.5
141
0.0
142
0.0
143
0.03937
144
1.0
145
0.0
146
0.71
147
0.625
 71
     0
 72
     0
 73
     0
 74
     0
 75
     0
 76
     0
 77
     1
 78
     8
170
     0
171
     2
172
     1
173
     0
174
     0
175
     0
176
   256
177
   256
178
   256
270
     2
271
     4
272
     4
273
     2
274
     2
340
11
275
     0
280
     0
281
     0
282
     0
283
     1
284
     8
285
     8
286
     8
287
     5
288
     0
  0
DIMSTYLE
105
7C
330
A
100
AcDbSymbolTableRecord
100
AcDbDimStyleTableRecord
  2
AM_JIS$4
 70
     0
  3

  4
"
  5

  6

  7

 40
1.0
 41
1.6
 42
1.0
 43
7.0
 44
1.0
 45
0.0
 46
0.0
 47
0.1
 48
0.1
140
2.5
141
0.0
142
0.0
143
0.03937
144
1.0
145
0.0
146
0.71
147
0.625
 71
     0
 72
     0
 73
     0
 74
     0
 75
     0
 76
     0
 77
     1
 78
     8
170
     0
171
     2
172
     1
173
     0
174
     0
175
     0
176
   256
177
   256
178
   256
270
     2
271
     4
272
     4
273
     2
274
     2
340
11
275
     0
280
     0
281
     0
282
     0
283
     1
284
     8
285
     8
286
     8
287
     5
288
     0
  0
DIMSTYLE
105
7D
330
A
100
AcDbSymbolTableRecord
100
AcDbDimStyleTableRecord
  2
AM_JIS$6
 70
     0
  3

  4
"
  5

  6

  7

 40
1.0
 41
1.6
 42
1.0
 43
7.0
 44
1.0
 45
0.0
 46
0.0
 47
0.1
 48
0.1
140
2.5
141
0.0
142
0.0
143
0.03937
144
1.0
145
0.0
146
0.71
147
0.625
 71
     0
 72
     0
 73
     0
 74
     0
 75
     0
 76
     0
 77
     0
 78
     8
170
     0
171
     2
172
     1
173
     0
174
     0
175
     0
176
   256
177
   256
178
   256
270
     2
271
     4
272
     4
273
     2
274
     2
340
11
275
     0
280
     0
281
     0
282
     0
283
     1
284
     8
285
     8
286
     8
287
     5
288
     0
  0
DIMSTYLE
105
7E
330
A
100
AcDbSymbolTableRecord
100
AcDbDimStyleTableRecord
  2
AM_JIS$7
 70
     0
  3

  4
"
  5

  6

  7

 40
1.0
 41
1.6
 42
1.0
 43
7.0
 44
1.0
 45
0.0
 46
0.0
 47
0.1
 48
0.1
140
2.5
141
0.0
142
0.0
143
0.03937
144
1.0
145
0.0
146
0.71
147
0.625
 71
     0
 72
     0
 73
     0
 74
     0
 75
     0
 76
     0
 77
     1
 78
     8
170
     0
171
     2
172
     1
173
     0
174
     0
175
     0
176
   256
177
   256
178
   256
270
     2
271
     4
272
     4
273
     2
274
     2
340
11
275
     0
280
     0
281
     0
282
     0
283
     1
284
     8
285
     8
286
     8
287
     5
288
     0
  0
DIMSTYLE
105
7F
330
A
100
AcDbSymbolTableRecord
100
AcDbDimStyleTableRecord
  2
AM_JIS$SF
 70
     0
  3

  4
"
  5

  6

  7

 40
1.0
 41
2.5
 42
1.0
 43
10.0
 44
1.0
 45
0.0
 46
0.0
 47
0.1
 48
0.1
140
3.5
141
0.0
142
0.0
143
0.03937
144
1.0
145
0.0
146
0.71
147
1.5
 71
     0
 72
     0
 73
     0
 74
     0
 75
     1
 76
     1
 77
     3
 78
     8
170
     0
171
     2
172
     1
173
     0
174
     0
175
     0
176
   256
177
   256
178
     2
270
     2
271
     4
272
     4
273
     2
274
     2
340
11
275
     0
280
     0
281
     0
282
     0
283
     1
284
     8
285
     8
286
     8
287
     5
288
     0
  0
DIMSTYLE
105
80
330
A
100
AcDbSymbolTableRecord
100
AcDbDimStyleTableRecord
  2
AM_JIS$SH
 70
     0
  3

  4
"
  5

  6

  7

 40
1.0
 41
2.5
 42
1.0
 43
10.0
 44
1.0
 45
0.0
 46
0.0
 47
0.1
 48
0.1
140
3.5
141
0.0
142
0.0
143
0.03937
144
2.0
145
0.0
146
0.71
147
1.5
 71
     0
 72
     0
 73
     0
 74
     0
 75
     1
 76
     1
 77
     3
 78
     8
170
     0
171
     2
172
     1
173
     1
174
     0
175
     0
176
   256
177
   256
178
     2
270
     2
271
     4
272
     4
273
     2
274
     2
340
11
275
     0
280
     0
281
     0
282
     0
283
     1
284
     8
285
     8
286
     8
287
     5
288
     0
  0
DIMSTYLE
105
81
330
A
100
AcDbSymbolTableRecord
100
AcDbDimStyleTableRecord
  2
AM_JIS$2
 70
     0
  3

  4
"
  5

  6

  7

 40
1.0
 41
1.6
 42
1.0
 43
7.0
 44
1.0
 45
0.0
 46
0.0
 47
0.1
 48
0.1
140
2.5
141
0.0
142
0.0
143
0.03937
144
1.0
145
0.0
146
0.71
147
0.625
 71
     0
 72
     0
 73
     0
 74
     0
 75
     0
 76
     0
 77
     1
 78
     8
170
     0
171
     2
172
     1
173
     0
174
     0
175
     0
176
   256
177
   256
178
   256
270
     2
271
     4
272
     4
273
     2
274
     2
340
11
275
     0
280
     0
281
     0
282
     0
283
     1
284
     8
285
     8
286
     8
287
     5
288
     0
  0
DIMSTYLE
105
82
330
A
100
AcDbSymbolTableRecord
100
AcDbDimStyleTableRecord
  2
AM_JIS$0
 70
     0
  3

  4
"
  5

  6

  7

 40
1.0
 41
1.6
 42
1.0
 43
7.0
 44
1.0
 45
0.0
 46
0.0
 47
0.1
 48
0.1
140
2.5
141
0.0
142
0.0
143
0.03937
144
1.0
145
0.0
146
0.71
147
0.625
 71
     0
 72
     0
 73
     0
 74
     0
 75
     0
 76
     0
 77
     1
 78
     8
170
     0
171
     2
172
     1
173
     0
174
     0
175
     0
176
   256
177
   256
178
   256
270
     2
271
     4
272
     4
273
     2
274
     2
340
11
275
     0
280
     0
281
     0
282
     0
283
     1
284
     8
285
     8
286
     8
287
     5
288
     0
  0
DIMSTYLE
105
83
330
A
100
AcDbSymbolTableRecord
100
AcDbDimStyleTableRecord
  2
SANKYO
 70
     0
  3

  4
"
  5

  6

  7

 40
1.0
 41
4.799999999999999
 42
1.0
 43
7.0
 44
3.0
 45
0.0
 46
0.0
 47
0.1
 48
0.1
140
7.0
141
0.0
142
0.0
143
0.03937
144
1.0
145
0.0
146
0.71
147
1.3
 71
     0
 72
     0
 73
     0
 74
     0
 75
     0
 76
     0
 77
     1
 78
     8
170
     0
171
     2
172
     1
173
     0
174
     0
175
     0
176
   256
177
   256
178
   256
270
     2
271
     4
272
     4
273
     2
274
     2
340
11
275
     0
280
     0
281
     0
282
     0
283
     1
284
     8
285
     8
286
     8
287
     5
288
     0
  0
DIMSTYLE
105
84
330
A
100
AcDbSymbolTableRecord
100
AcDbDimStyleTableRecord
  2
SANKYO$3
 70
     0
  3

  4
"
  5

  6

  7

 40
1.0
 41
4.799999999999999
 42
1.0
 43
10.0
 44
3.0
 45
0.0
 46
0.0
 47
0.1
 48
0.1
140
7.0
141
0.0
142
0.0
143
0.03937
144
1.0
145
0.0
146
0.71
147
1.3
 71
     0
 72
     0
 73
     0
 74
     0
 75
     0
 76
     0
 77
     1
 78
     8
170
     0
171
     2
172
     1
173
     0
174
     0
175
     0
176
   256
177
   256
178
   256
270
     2
271
     4
272
     4
273
     2
274
     2
340
11
275
     0
280
     0
281
     0
282
     0
283
     1
284
     8
285
     8
286
     8
287
     5
288
     0
  0
DIMSTYLE
105
85
330
A
100
AcDbSymbolTableRecord
100
AcDbDimStyleTableRecord
  2
SANKYO$4
 70
     0
  3

  4
"
  5

  6

  7

 40
1.0
 41
4.799999999999999
 42
1.0
 43
10.0
 44
3.0
 45
0.0
 46
0.0
 47
0.1
 48
0.1
140
7.0
141
0.0
142
0.0
143
0.03937
144
1.0
145
0.0
146
0.71
147
1.3
 71
     0
 72
     0
 73
     0
 74
     0
 75
     0
 76
     0
 77
     1
 78
     8
170
     0
171
     2
172
     1
173
     1
174
     0
175
     0
176
   256
177
   256
178
   256
270
     2
271
     4
272
     4
273
     2
274
     2
340
11
275
     0
280
     0
281
     0
282
     0
283
     1
284
     8
285
     8
286
     8
287
     5
288
     0
  0
DIMSTYLE
105
86
330
A
100
AcDbSymbolTableRecord
100
AcDbDimStyleTableRecord
  2
SANKYO$6
 70
     0
  3

  4
"
  5

  6

  7

 40
1.0
 41
4.799999999999999
 42
1.0
 43
7.0
 44
3.0
 45
0.0
 46
0.0
 47
0.1
 48
0.1
140
7.0
141
0.0
142
0.0
143
0.03937
144
1.0
145
0.0
146
0.71
147
1.3
 71
     0
 72
     0
 73
     0
 74
     0
 75
     0
 76
     0
 77
     0
 78
     8
170
     0
171
     2
172
     1
173
     0
174
     0
175
     0
176
   256
177
   256
178
   256
270
     2
271
     4
272
     4
273
     2
274
     2
340
11
275
     0
280
     0
281
     0
282
     0
283
     1
284
     8
285
     8
286
     8
287
     5
288
     0
  0
DIMSTYLE
105
87
330
A
100
AcDbSymbolTableRecord
100
AcDbDimStyleTableRecord
  2
SANKYO$7
 70
     0
  3

  4
"
  5

  6

  7

 40
1.0
 41
4.799999999999999
 42
1.0
 43
7.0
 44
3.0
 45
0.0
 46
0.0
 47
0.1
 48
0.1
140
7.0
141
0.0
142
0.0
143
0.03937
144
1.0
145
0.0
146
0.71
147
1.3
 71
     0
 72
     0
 73
     0
 74
     0
 75
     0
 76
     0
 77
     1
 78
     8
170
     0
171
     2
172
     1
173
     0
174
     0
175
     0
176
   256
177
   256
178
   256
270
     2
271
     4
272
     4
273
     2
274
     2
340
11
275
     0
280
     0
281
     0
282
     0
283
     1
284
     8
285
     8
286
     8
287
     5
288
     0
  0
DIMSTYLE
105
88
330
A
100
AcDbSymbolTableRecord
100
AcDbDimStyleTableRecord
  2
SANKYO$SF
 70
     0
  3

  4
"
  5

  6

  7

 40
1.0
 41
2.5
 42
1.0
 43
10.0
 44
1.0
 45
0.0
 46
0.0
 47
0.1
 48
0.1
140
3.5
141
0.0
142
0.0
143
0.03937
144
1.0
145
0.0
146
0.71
147
1.5
 71
     0
 72
     0
 73
     0
 74
     0
 75
     1
 76
     1
 77
     3
 78
     8
170
     0
171
     2
172
     1
173
     0
174
     0
175
     0
176
   256
177
   256
178
     2
270
     2
271
     4
272
     4
273
     2
274
     2
340
11
275
     0
280
     0
281
     0
282
     0
283
     1
284
     8
285
     8
286
     8
287
     5
288
     0
  0
DIMSTYLE
105
89
330
A
100
AcDbSymbolTableRecord
100
AcDbDimStyleTableRecord
  2
SANKYO$SH
 70
     0
  3

  4
"
  5

  6

  7

 40
1.0
 41
2.5
 42
1.0
 43
10.0
 44
1.0
 45
0.0
 46
0.0
 47
0.1
 48
0.1
140
3.5
141
0.0
142
0.0
143
0.03937
144
2.0
145
0.0
146
0.71
147
1.5
 71
     0
 72
     0
 73
     0
 74
     0
 75
     1
 76
     1
 77
     3
 78
     8
170
     0
171
     2
172
     1
173
     1
174
     0
175
     0
176
   256
177
   256
178
     2
270
     2
271
     4
272
     4
273
     2
274
     2
340
11
275
     0
280
     0
281
     0
282
     0
283
     1
284
     8
285
     8
286
     8
287
     5
288
     0
  0
DIMSTYLE
105
8A
330
A
100
AcDbSymbolTableRecord
100
AcDbDimStyleTableRecord
  2
SANKYO$2
 70
     0
  3

  4
"
  5

  6

  7

 40
1.0
 41
4.799999999999999
 42
1.0
 43
7.0
 44
3.0
 45
0.0
 46
0.0
 47
0.1
 48
0.1
140
7.0
141
0.0
142
0.0
143
0.03937
144
1.0
145
0.0
146
0.71
147
1.3
 71
     0
 72
     0
 73
     0
 74
     0
 75
     0
 76
     0
 77
     1
 78
     8
170
     0
171
     2
172
     1
173
     0
174
     0
175
     0
176
   256
177
   256
178
   256
270
     2
271
     4
272
     4
273
     2
274
     2
340
11
275
     0
280
     0
281
     0
282
     0
283
     1
284
     8
285
     8
286
     8
287
     5
288
     0
  0
DIMSTYLE
105
8B
330
A
100
AcDbSymbolTableRecord
100
AcDbDimStyleTableRecord
  2
SANKYO$0
 70
     0
  3

  4
"
  5

  6

  7

 40
1.0
 41
4.799999999999999
 42
1.0
 43
7.0
 44
3.0
 45
0.0
 46
0.0
 47
0.1
 48
0.1
140
7.0
141
0.0
142
0.0
143
0.03937
144
1.0
145
0.0
146
0.71
147
1.3
 71
     0
 72
     0
 73
     0
 74
     0
 75
     0
 76
     0
 77
     1
 78
     8
170
     0
171
     2
172
     1
173
     0
174
     0
175
     0
176
   256
177
   256
178
   256
270
     2
271
     4
272
     4
273
     2
274
     2
340
11
275
     0
280
     0
281
     0
282
     0
283
     1
284
     8
285
     8
286
     8
287
     5
288
     0
  0
DIMSTYLE
105
8C
330
A
100
AcDbSymbolTableRecord
100
AcDbDimStyleTableRecord
  2
AM_ISO
 70
     0
  3

  4
"
  5

  6

  7

 40
1.0
 41
1.6
 42
1.0
 43
7.0
 44
1.0
 45
0.0
 46
0.0
 47
0.1
 48
0.1
140
2.5
141
0.0
142
0.0
143
0.03937
144
1.0
145
0.0
146
0.71
147
0.625
 71
     0
 72
     0
 73
     0
 74
     0
 75
     0
 76
     0
 77
     1
 78
     8
170
     0
171
     2
172
     1
173
     0
174
     0
175
     0
176
   256
177
   256
178
   256
270
     2
271
     4
272
     4
273
     2
274
     2
340
11
275
     0
280
     0
281
     0
282
     0
283
     1
284
     8
285
     8
286
     8
287
     5
288
     0
  0
DIMSTYLE
105
8D
330
A
100
AcDbSymbolTableRecord
100
AcDbDimStyleTableRecord
  2
AM_ISO$3
 70
     0
  3

  4
"
  5

  6

  7

 40
1.0
 41
1.6
 42
1.0
 43
7.0
 44
1.0
 45
0.0
 46
0.0
 47
0.1
 48
0.1
140
2.5
141
0.0
142
0.0
143
0.03937
144
1.0
145
0.0
146
0.71
147
0.625
 71
     0
 72
     0
 73
     0
 74
     0
 75
     0
 76
     0
 77
     1
 78
     8
170
     0
171
     2
172
     1
173
     0
174
     0
175
     0
176
   256
177
   256
178
   256
270
     2
271
     4
272
     4
273
     2
274
     2
340
11
275
     0
280
     0
281
     0
282
     0
283
     1
284
     8
285
     8
286
     8
287
     5
288
     0
  0
DIMSTYLE
105
8E
330
A
100
AcDbSymbolTableRecord
100
AcDbDimStyleTableRecord
  2
AM_ISO$4
 70
     0
  3

  4
"
  5

  6

  7

 40
1.0
 41
1.6
 42
1.0
 43
7.0
 44
1.0
 45
0.0
 46
0.0
 47
0.1
 48
0.1
140
2.5
141
0.0
142
0.0
143
0.03937
144
1.0
145
0.0
146
0.71
147
0.625
 71
     0
 72
     0
 73
     0
 74
     0
 75
     0
 76
     0
 77
     1
 78
     8
170
     0
171
     2
172
     1
173
     0
174
     0
175
     0
176
   256
177
   256
178
   256
270
     2
271
     4
272
     4
273
     2
274
     2
340
11
275
     0
280
     0
281
     0
282
     0
283
     1
284
     8
285
     8
286
     8
287
     5
288
     0
  0
DIMSTYLE
105
8F
330
A
100
AcDbSymbolTableRecord
100
AcDbDimStyleTableRecord
  2
AM_ISO$6
 70
     0
  3

  4
"
  5

  6

  7

 40
1.0
 41
1.6
 42
1.0
 43
7.0
 44
1.0
 45
0.0
 46
0.0
 47
0.1
 48
0.1
140
2.5
141
0.0
142
0.0
143
0.03937
144
1.0
145
0.0
146
0.71
147
0.625
 71
     0
 72
     0
 73
     0
 74
     0
 75
     0
 76
     0
 77
     0
 78
     8
170
     0
171
     2
172
     1
173
     0
174
     0
175
     0
176
   256
177
   256
178
   256
270
     2
271
     4
272
     4
273
     2
274
     2
340
11
275
     0
280
     0
281
     0
282
     0
283
     1
284
     8
285
     8
286
     8
287
     5
288
     0
  0
DIMSTYLE
105
90
330
A
100
AcDbSymbolTableRecord
100
AcDbDimStyleTableRecord
  2
AM_ISO$7
 70
     0
  3

  4
"
  5

  6

  7

 40
1.0
 41
1.6
 42
1.0
 43
7.0
 44
1.0
 45
0.0
 46
0.0
 47
0.1
 48
0.1
140
2.5
141
0.0
142
0.0
143
0.03937
144
1.0
145
0.0
146
0.71
147
0.625
 71
     0
 72
     0
 73
     0
 74
     0
 75
     0
 76
     0
 77
     1
 78
     8
170
     0
171
     2
172
     1
173
     0
174
     0
175
     0
176
   256
177
   256
178
   256
270
     2
271
     4
272
     4
273
     2
274
     2
340
11
275
     0
280
     0
281
     0
282
     0
283
     1
284
     8
285
     8
286
     8
287
     5
288
     0
  0
DIMSTYLE
105
91
330
A
100
AcDbSymbolTableRecord
100
AcDbDimStyleTableRecord
  2
AM_ISO$SF
 70
     0
  3

  4
"
  5

  6

  7

 40
1.0
 41
2.5
 42
1.0
 43
10.0
 44
1.0
 45
0.0
 46
0.0
 47
0.1
 48
0.1
140
3.5
141
0.0
142
0.0
143
0.03937
144
1.0
145
0.0
146
0.71
147
1.5
 71
     0
 72
     0
 73
     0
 74
     0
 75
     1
 76
     1
 77
     1
 78
     8
170
     0
171
     2
172
     1
173
     0
174
     0
175
     0
176
   256
177
   256
178
     2
270
     2
271
     4
272
     4
273
     2
274
     2
340
11
275
     0
280
     0
281
     0
282
     0
283
     1
284
     8
285
     8
286
     8
287
     5
288
     0
  0
DIMSTYLE
105
92
330
A
100
AcDbSymbolTableRecord
100
AcDbDimStyleTableRecord
  2
AM_ISO$SH
 70
     0
  3

  4
"
  5

  6

  7

 40
1.0
 41
2.5
 42
1.0
 43
10.0
 44
1.0
 45
0.0
 46
0.0
 47
0.1
 48
0.1
140
3.5
141
0.0
142
0.0
143
0.03937
144
2.0
145
0.0
146
0.71
147
1.5
 71
     0
 72
     0
 73
     0
 74
     0
 75
     1
 76
     1
 77
     1
 78
     8
170
     0
171
     2
172
     1
173
     1
174
     0
175
     0
176
   256
177
   256
178
     2
270
     2
271
     4
272
     4
273
     2
274
     2
340
11
275
     0
280
     0
281
     0
282
     0
283
     1
284
     8
285
     8
286
     8
287
     5
288
     0
  0
DIMSTYLE
105
93
330
A
100
AcDbSymbolTableRecord
100
AcDbDimStyleTableRecord
  2
AM_ISO$2
 70
     0
  3

  4
"
  5

  6

  7

 40
1.0
 41
1.6
 42
1.0
 43
7.0
 44
1.0
 45
0.0
 46
0.0
 47
0.1
 48
0.1
140
2.5
141
0.0
142
0.0
143
0.03937
144
1.0
145
0.0
146
0.71
147
0.625
 71
     0
 72
     0
 73
     0
 74
     0
 75
     0
 76
     0
 77
     1
 78
     8
170
     0
171
     2
172
     1
173
     0
174
     0
175
     0
176
   256
177
   256
178
   256
270
     2
271
     4
272
     4
273
     2
274
     2
340
11
275
     0
280
     0
281
     0
282
     0
283
     1
284
     8
285
     8
286
     8
287
     5
288
     0
  0
DIMSTYLE
105
94
330
A
100
AcDbSymbolTableRecord
100
AcDbDimStyleTableRecord
  2
AM_ISO$0
 70
     0
  3

  4
"
  5

  6

  7

 40
1.0
 41
1.6
 42
1.0
 43
7.0
 44
1.0
 45
0.0
 46
0.0
 47
0.1
 48
0.1
140
2.5
141
0.0
142
0.0
143
0.03937
144
1.0
145
0.0
146
0.71
147
0.625
 71
     0
 72
     0
 73
     0
 74
     0
 75
     0
 76
     0
 77
     1
 78
     8
170
     0
171
     2
172
     1
173
     0
174
     0
175
     0
176
   256
177
   256
178
   256
270
     2
271
     4
272
     4
273
     2
274
     2
340
11
275
     0
280
     0
281
     0
282
     0
283
     1
284
     8
285
     8
286
     8
287
     5
288
     0
  0
DIMSTYLE
105
95
330
A
100
AcDbSymbolTableRecord
100
AcDbDimStyleTableRecord
  2
AM_ANSI
 70
     0
  3

  4
mm
  5

  6

  7

 40
1.0
 41
0.12
 42
0.05
 43
0.5
 44
0.1
 45
0.0
 46
0.0
 47
0.1
 48
0.1
140
0.12
141
0.0
142
0.0
143
25.4
144
1.0
145
0.0
146
0.71
147
0.06
 71
     0
 72
     0
 73
     1
 74
     1
 75
     0
 76
     0
 77
     0
 78
     7
170
     0
171
     2
172
     0
173
     0
174
     0
175
     0
176
   256
177
   256
178
     2
270
     2
271
     4
272
     4
273
     2
274
     2
340
11
275
     0
280
     0
281
     0
282
     0
283
     1
284
     8
285
     8
286
     8
287
     5
288
     0
  0
DIMSTYLE
105
96
330
A
100
AcDbSymbolTableRecord
100
AcDbDimStyleTableRecord
  2
AM_ANSI$3
 70
     0
  3

  4
mm
  5

  6

  7

 40
1.0
 41
0.12
 42
0.05
 43
0.5
 44
0.1
 45
0.0
 46
0.0
 47
0.1
 48
0.1
140
0.12
141
0.0
142
0.0
143
25.4
144
1.0
145
0.0
146
0.71
147
0.06
 71
     0
 72
     0
 73
     1
 74
     1
 75
     0
 76
     0
 77
     0
 78
     7
170
     0
171
     2
172
     0
173
     0
174
     0
175
     0
176
   256
177
   256
178
     2
270
     2
271
     4
272
     4
273
     2
274
     2
340
11
275
     0
280
     0
281
     0
282
     0
283
     1
284
     8
285
     8
286
     8
287
     5
288
     0
  0
DIMSTYLE
105
97
330
A
100
AcDbSymbolTableRecord
100
AcDbDimStyleTableRecord
  2
AM_ANSI$4
 70
     0
  3

  4
mm
  5

  6

  7

 40
1.0
 41
0.12
 42
0.05
 43
0.5
 44
0.1
 45
0.0
 46
0.0
 47
0.1
 48
0.1
140
0.12
141
0.0
142
0.0
143
25.4
144
1.0
145
0.0
146
0.71
147
0.06
 71
     0
 72
     0
 73
     1
 74
     1
 75
     0
 76
     0
 77
     0
 78
     7
170
     0
171
     2
172
     0
173
     0
174
     0
175
     0
176
   256
177
   256
178
     2
270
     2
271
     4
272
     4
273
     2
274
     2
340
11
275
     0
280
     0
281
     0
282
     0
283
     1
284
     8
285
     8
286
     8
287
     5
288
     0
  0
DIMSTYLE
105
98
330
A
100
AcDbSymbolTableRecord
100
AcDbDimStyleTableRecord
  2
AM_ANSI$7
 70
     0
  3

  4
mm
  5

  6

  7

 40
1.0
 41
0.12
 42
0.05
 43
0.5
 44
0.1
 45
0.0
 46
0.0
 47
0.1
 48
0.1
140
0.12
141
0.0
142
0.0
143
25.4
144
1.0
145
0.0
146
0.71
147
0.06
 71
     0
 72
     0
 73
     1
 74
     1
 75
     0
 76
     0
 77
     0
 78
     7
170
     0
171
     2
172
     0
173
     0
174
     0
175
     0
176
   256
177
   256
178
     2
270
     2
271
     4
272
     4
273
     2
274
     2
340
11
275
     0
280
     0
281
     0
282
     0
283
     1
284
     8
285
     8
286
     8
287
     5
288
     0
  0
DIMSTYLE
105
99
330
A
100
AcDbSymbolTableRecord
100
AcDbDimStyleTableRecord
  2
AM_ANSI$SF
 70
     0
  3

  4
mm
  5

  6

  7

 40
1.0
 41
0.12
 42
0.05
 43
0.5
 44
0.1
 45
0.0
 46
0.0
 47
0.1
 48
0.1
140
0.12
141
0.0
142
0.0
143
25.4
144
1.0
145
0.0
146
0.71
147
0.06
 71
     0
 72
     0
 73
     1
 74
     1
 75
     1
 76
     1
 77
     0
 78
     7
170
     0
171
     2
172
     0
173
     0
174
     0
175
     0
176
   256
177
   256
178
     2
270
     2
271
     4
272
     4
273
     2
274
     2
340
11
275
     0
280
     0
281
     0
282
     0
283
     1
284
     8
285
     8
286
     8
287
     5
288
     0
  0
DIMSTYLE
105
9A
330
A
100
AcDbSymbolTableRecord
100
AcDbDimStyleTableRecord
  2
AM_ANSI$SH
 70
     0
  3

  4
mm
  5

  6

  7

 40
1.0
 41
0.12
 42
0.05
 43
0.5
 44
0.1
 45
0.0
 46
0.0
 47
0.1
 48
0.1
140
0.12
141
0.0
142
0.0
143
25.4
144
1.0
145
0.0
146
0.71
147
0.06
 71
     0
 72
     0
 73
     1
 74
     1
 75
     1
 76
     1
 77
     0
 78
     7
170
     0
171
     2
172
     0
173
     1
174
     0
175
     0
176
   256
177
   256
178
     2
270
     2
271
     4
272
     4
273
     2
274
     2
340
11
275
     0
280
     0
281
     0
282
     0
283
     1
284
     8
285
     8
286
     8
287
     5
288
     0
  0
ENDTAB
  0
TABLE
  2
BLOCK_RECORD
  5
1
330
0
100
AcDbSymbolTable
 70
     4
  0
BLOCK_RECORD
  5
1E
102
{ACAD_XDICTIONARY
360
6C5
102
}
330
1
100
AcDbSymbolTableRecord
100
AcDbBlockTableRecord
  2
*MODEL_SPACE
  0
BLOCK_RECORD
  5
1A
102
{ACAD_XDICTIONARY
360
6C3
102
}
330
1
100
AcDbSymbolTableRecord
100
AcDbBlockTableRecord
  2
*PAPER_SPACE
  0
BLOCK_RECORD
  5
A9
330
1
100
AcDbSymbolTableRecord
100
AcDbBlockTableRecord
  2
_OPEN30
  0
BLOCK_RECORD
  5
AF
330
1
100
AcDbSymbolTableRecord
100
AcDbBlockTableRecord
  2
GENAXEH
  0
BLOCK_RECORD
  5
B3
330
1
100
AcDbSymbolTableRecord
100
AcDbBlockTableRecord
  2
_OPEN
  0
BLOCK_RECORD
  5
B9
330
1
100
AcDbSymbolTableRecord
100
AcDbBlockTableRecord
  2
_DOTSMALL
  0
ENDTAB
  0
ENDSEC
  0
SECTION
  2
BLOCKS
  0
BLOCK
  5
1F
330
1E
100
AcDbEntity
  8
0
100
AcDbBlockBegin
  2
*MODEL_SPACE
 70
     0
 10
0.0
 20
0.0
 30
0.0
  3
*MODEL_SPACE
  1

  0
ENDBLK
  5
20
330
1E
100
AcDbEntity
  8
0
100
AcDbBlockEnd
  0
BLOCK
  5
1B
330
1A
100
AcDbEntity
 67
     1
  8
0
100
AcDbBlockBegin
  2
*PAPER_SPACE
 70
     0
 10
0.0
 20
0.0
 30
0.0
  3
*PAPER_SPACE
  1

  0
ENDBLK
  5
1C
330
1A
100
AcDbEntity
 67
     1
  8
0
100
AcDbBlockEnd
  0
BLOCK
  5
AA
330
A9
100
AcDbEntity
  8
0
100
AcDbBlockBegin
  2
_OPEN30
 70
     0
 10
0.0
 20
0.0
 30
0.0
  3
_OPEN30
  1

  0
LINE
  5
AB
330
A9
100
AcDbEntity
  8
0
  6
BYBLOCK
 62
     0
100
AcDbLine
 10
-1.0
 20
0.267949
 30
0.0
 11
0.0
 21
0.0
 31
0.0
  0
LINE
  5
AC
330
A9
100
AcDbEntity
  8
0
  6
BYBLOCK
 62
     0
100
AcDbLine
 10
0.0
 20
0.0
 30
0.0
 11
-1.0
 21
-0.267949
 31
0.0
  0
LINE
  5
AD
330
A9
100
AcDbEntity
  8
0
  6
BYBLOCK
 62
     0
100
AcDbLine
 10
0.0
 20
0.0
 30
0.0
 11
-1.0
 21
0.0
 31
0.0
  0
ENDBLK
  5
AE
330
A9
100
AcDbEntity
  8
0
100
AcDbBlockEnd
  0
BLOCK
  5
B0
330
AF
100
AcDbEntity
  8
0
100
AcDbBlockBegin
  2
GENAXEH
 70
     0
 10
0.0
 20
0.0
 30
0.0
  3
GENAXEH
  1

  0
LINE
  5
B1
330
AF
100
AcDbEntity
  8
0
100
AcDbLine
 10
-1.0
 20
0.0
 30
0.0
 11
1.0
 21
0.0
 31
0.0
  0
ENDBLK
  5
B2
330
AF
100
AcDbEntity
  8
0
100
AcDbBlockEnd
  0
BLOCK
  5
B4
330
B3
100
AcDbEntity
  8
0
100
AcDbBlockBegin
  2
_OPEN
 70
     0
 10
0.0
 20
0.0
 30
0.0
  3
_OPEN
  1

  0
LINE
  5
B5
330
B3
100
AcDbEntity
  8
0
  6
BYBLOCK
 62
     0
100
AcDbLine
 10
-1.0
 20
0.166667
 30
0.0
 11
0.0
 21
0.0
 31
0.0
  0
LINE
  5
B6
330
B3
100
AcDbEntity
  8
0
  6
BYBLOCK
 62
     0
100
AcDbLine
 10
-1.0
 20
-0.166667
 30
0.0
 11
0.0
 21
0.0
 31
0.0
  0
LINE
  5
B7
330
B3
100
AcDbEntity
  8
0
  6
BYBLOCK
 62
     0
100
AcDbLine
 10
0.0
 20
0.0
 30
0.0
 11
-1.0
 21
0.0
 31
0.0
  0
ENDBLK
  5
B8
330
B3
100
AcDbEntity
  8
0
100
AcDbBlockEnd
  0
BLOCK
  5
BA
330
B9
100
AcDbEntity
  8
0
100
AcDbBlockBegin
  2
_DOTSMALL
 70
     0
 10
0.0
 20
0.0
 30
0.0
  3
_DOTSMALL
  1

  0
POLYLINE
  5
BB
330
B9
100
AcDbEntity
  8
0
  6
BYBLOCK
 62
     0
100
AcDb2dPolyline
 66
     1
 10
0.0
 20
0.0
 30
0.0
 70
     1
 40
0.5
 41
0.5
  0
VERTEX
  5
BC
330
BB
100
AcDbEntity
  8
0
  6
BYBLOCK
 62
     0
100
AcDbVertex
100
AcDb2dVertex
 10
-0.0625
 20
0.0
 30
0.0
 42
1.0
  0
VERTEX
  5
BD
330
BB
100
AcDbEntity
  8
0
  6
BYBLOCK
 62
     0
100
AcDbVertex
100
AcDb2dVertex
 10
0.0625
 20
0.0
 30
0.0
 42
1.0
  0
SEQEND
  5
BE
330
BB
100
AcDbEntity
  8
0
  6
BYBLOCK
 62
     0
  0
ENDBLK
  5
BF
330
B9
100
AcDbEntity
  8
0
100
AcDbBlockEnd
  0
ENDSEC
  0
SECTION
  2
ENTITIES
  0
LINE
  5
C0
330
1E
100
AcDbEntity
  8
WK
100
AcDbLine
 10
23.5
 20
16.25
 30
0.0
 11
817.5
 21
16.25
 31
0.0
  0
LINE
  5
C1
330
1E
100
AcDbEntity
  8
WK
100
AcDbLine
 10
23.5
 20
577.7499999999999
 30
0.0
 11
817.5
 21
577.7499999999999
 31
0.0
  0
LINE
  5
C2
330
1E
100
AcDbEntity
  8
WK
100
AcDbLine
 10
23.5
 20
577.7499999999999
 30
0.0
 11
23.5
 21
16.25
 31
0.0
  0
LINE
  5
C3
330
1E
100
AcDbEntity
  8
WK
100
AcDbLine
 10
817.5
 20
577.7499999999999
 30
0.0
 11
817.5
 21
16.25
 31
0.0
  0
TEXT
  5
C4
330
1E
100
AcDbEntity
  8
WK
100
AcDbText
 10
22.5
 20
16.25
 30
0.0
 40
3.2
  1
A1
 50
90.0
 41
0.8299999999999998
100
AcDbText
  0
LINE
  5
C5
330
1E
100
AcDbEntity
  8
WK
100
AcDbLine
 10
737.5
 20
34.25
 30
0.0
 11
737.5
 21
16.25
 31
0.0
  0
LINE
  5
C6
330
1E
100
AcDbEntity
  8
WK
100
AcDbLine
 10
542.4999999999999
 20
34.25
 30
0.0
 11
542.4999999999999
 21
16.25
 31
0.0
  0
LINE
  5
C7
330
1E
100
AcDbEntity
  8
WK
100
AcDbLine
 10
697.5
 20
34.25
 30
0.0
 11
697.5
 21
16.25
 31
0.0
  0
LINE
  5
C8
330
1E
100
AcDbEntity
  8
WK
100
AcDbLine
 10
717.4999999999999
 20
34.25
 30
0.0
 11
717.4999999999999
 21
16.25
 31
0.0
  0
LINE
  5
C9
330
1E
100
AcDbEntity
  8
WK
100
AcDbLine
 10
657.5
 20
34.25
 30
0.0
 11
657.5
 21
16.25
 31
0.0
  0
LINE
  5
CA
330
1E
100
AcDbEntity
  8
WK
100
AcDbLine
 10
637.5
 20
34.25
 30
0.0
 11
637.5
 21
16.25
 31
0.0
  0
LINE
  5
CB
330
1E
100
AcDbEntity
  8
WK
100
AcDbLine
 10
542.4999999999999
 20
34.25
 30
0.0
 11
817.5
 21
34.25
 31
0.0
  0
LINE
  5
CC
330
1E
100
AcDbEntity
  8
WK
100
AcDbLine
 10
551.4999999999999
 20
26.25
 30
0.0
 11
624.5
 21
26.25
 31
0.0
  0
LINE
  5
CD
330
1E
100
AcDbEntity
  8
WK
100
AcDbLine
 10
657.5
 20
22.25
 30
0.0
 11
697.5
 21
22.25
 31
0.0
  0
LINE
  5
CE
330
1E
100
AcDbEntity
  8
WK
100
AcDbLine
 10
657.5
 20
28.25
 30
0.0
 11
697.5
 21
28.25
 31
0.0
  0
LINE
  5
CF
330
1E
100
AcDbEntity
  8
WK
100
AcDbLine
 10
803.809475
 20
25.25
 30
0.0
 11
815.809475
 21
25.25
 31
0.0
  0
CIRCLE
  5
D0
330
1E
100
AcDbEntity
  8
WK
100
AcDbCircle
 10
809.8094749999999
 20
25.25
 30
0.0
 40
6.0
  0
TEXT
  5
D1
330
1E
100
AcDbEntity
  8
WK
100
AcDbText
 10
644.5278095238095
 20
20.64999999999999
 30
0.0
 40
3.2
  1
1:1
 41
0.8299999999999998
 72
     4
 11
647.5
 21
22.25
 31
0.0
100
AcDbText
  0
TEXT
  5
D2
330
1E
100
AcDbEntity
  8
WK
100
AcDbText
 10
739.803133
 20
30.15
 30
0.0
 40
3.2
  1
図番
 41
0.8299999999999998
100
AcDbText
  0
TEXT
  5
D3
330
1E
100
AcDbEntity
  8
WK
100
AcDbText
 10
719.9289999999999
 20
30.15
 30
0.0
 40
3.2
  1
検図
 41
0.8299999999999998
100
AcDbText
  0
TEXT
  5
D4
330
1E
100
AcDbEntity
  8
WK
100
AcDbText
 10
699.929
 20
30.15
 30
0.0
 40
3.2
  1
作図
 41
0.8299999999999998
100
AcDbText
  0
TEXT
  5
D5
330
1E
100
AcDbEntity
  8
WK
100
AcDbText
 10
658.553573
 20
29.15
 30
0.0
 40
3.2
  1
作成
 41
0.8299999999999998
100
AcDbText
  0
TEXT
  5
D6
330
1E
100
AcDbEntity
  8
WK
100
AcDbText
 10
658.553573
 20
23.14999999999999
 30
0.0
 40
3.2
  1
制定
 41
0.8299999999999998
100
AcDbText
  0
TEXT
  5
D7
330
1E
100
AcDbEntity
  8
WK
100
AcDbText
 10
658.553573
 20
17.14999999999999
 30
0.0
 40
3.2
  1
廃止
 41
0.8299999999999998
100
AcDbText
  0
TEXT
  5
D8
330
1E
100
AcDbEntity
  8
WK
100
AcDbText
 10
638.429
 20
30.15
 30
0.0
 40
3.2
  1
尺度
 41
0.8299999999999998
100
AcDbText
  0
TEXT
  5
D9
330
1E
100
AcDbEntity
  8
WK
100
AcDbText
 10
625.4999999999999
 20
18.25
 30
0.0
 40
4.0
  1
基準図
 41
0.8
100
AcDbText
  0
TEXT
  5
DA
330
1E
100
AcDbEntity
  8
WK
100
AcDbText
 10
544.303133
 20
30.15
 30
0.0
 40
3.2
  1
図名
 41
0.8299999999999998
100
AcDbText
  0
LINE
  5
DB
330
1E
100
AcDbEntity
  8
WK
100
AcDbLine
 10
737.5
 20
558.150024
 30
0.0
 11
817.5
 21
558.150024
 31
0.0
  0
LINE
  5
DC
330
1E
100
AcDbEntity
  8
WK
100
AcDbLine
 10
737.5
 20
562.950012
 30
0.0
 11
817.5
 21
562.950012
 31
0.0
  0
LINE
  5
DD
330
1E
100
AcDbEntity
  8
WK
100
AcDbLine
 10
746.4999999999999
 20
572.9500119999999
 30
0.0
 11
746.4999999999999
 21
558.150024
 31
0.0
  0
LINE
  5
DE
330
1E
100
AcDbEntity
  8
WK
100
AcDbLine
 10
737.5
 20
567.75
 30
0.0
 11
817.5
 21
567.75
 31
0.0
  0
LINE
  5
DF
330
1E
100
AcDbEntity
  8
WK
100
AcDbLine
 10
737.5
 20
572.9500119999999
 30
0.0
 11
817.5
 21
572.9500119999999
 31
0.0
  0
LINE
  5
E0
330
1E
100
AcDbEntity
  8
WK
100
AcDbLine
 10
772.7185669999999
 20
577.7499999999999
 30
0.0
 11
772.7185669999999
 21
558.150024
 31
0.0
  0
LINE
  5
E1
330
1E
100
AcDbEntity
  8
WK
100
AcDbLine
 10
762.718567
 20
577.7499999999999
 30
0.0
 11
762.718567
 21
558.150024
 31
0.0
  0
LINE
  5
E2
330
1E
100
AcDbEntity
  8
WK
100
AcDbLine
 10
737.5
 20
577.7499999999999
 30
0.0
 11
737.5
 21
558.150024
 31
0.0
  0
TEXT
  5
E3
330
1E
100
AcDbEntity
  8
WK
100
AcDbText
 10
741.7585719999999
 20
559.400024
 30
0.0
 40
2.5
  1
ｘ
 41
0.59
100
AcDbText
  0
TEXT
  5
E4
330
1E
100
AcDbEntity
  8
WK
100
AcDbText
 10
741.7585719999999
 20
564.200012
 30
0.0
 40
2.5
  1
ｘ
 41
0.59
100
AcDbText
  0
TEXT
  5
E5
330
1E
100
AcDbEntity
  8
WK
100
AcDbText
 10
741.7585719999999
 20
569.0
 30
0.0
 40
2.5
  1
ｘ
 41
0.59
100
AcDbText
  0
TEXT
  5
E6
330
1E
100
AcDbEntity
  8
WK
100
AcDbText
 10
739.1601210476189
 20
568.6499759999999
 30
0.0
 40
2.5
  1
1
 41
0.8299999999999998
 72
     4
 11
740.000002
 21
569.8999759999999
 31
0.0
100
AcDbText
  0
TEXT
  5
E7
330
1E
100
AcDbEntity
  8
WK
100
AcDbText
 10
739.0119067619048
 20
563.8499879999999
 30
0.0
 40
2.5
  1
2
 41
0.8299999999999998
 72
     4
 11
740.000002
 21
565.0999879999999
 31
0.0
100
AcDbText
  0
TEXT
  5
E8
330
1E
100
AcDbEntity
  8
WK
100
AcDbText
 10
739.0119067619048
 20
559.0499999999999
 30
0.0
 40
2.5
  1
3
 41
0.8299999999999998
 72
     4
 11
740.000002
 21
560.2999999999999
 31
0.0
100
AcDbText
  0
TEXT
  5
E9
330
1E
100
AcDbEntity
  8
WK
100
AcDbText
 10
755.5326069999999
 20
574.2499999999999
 30
0.0
 40
2.5
  1
付
 41
0.59
100
AcDbText
  0
TEXT
  5
EA
330
1E
100
AcDbEntity
  8
WK
100
AcDbText
 10
745.5964230000001
 20
574.2499999999999
 30
0.0
 40
2.5
  1
日
 41
0.59
100
AcDbText
  0
TEXT
  5
EB
330
1E
100
AcDbEntity
  8
WK
100
AcDbText
 10
768.8404629999999
 20
574.2499999999999
 30
0.0
 40
2.5
  1
当
 41
0.59
100
AcDbText
  0
TEXT
  5
EC
330
1E
100
AcDbEntity
  8
WK
100
AcDbText
 10
765.570349
 20
574.2499999999999
 30
0.0
 40
2.5
  1
担
 41
0.59
100
AcDbText
  0
TEXT
  5
ED
330
1E
100
AcDbEntity
  8
WK
100
AcDbText
 10
790.037825
 20
574.2499999999999
 30
0.0
 40
2.5
  1
記
 41
0.59
100
AcDbText
  0
TEXT
  5
EE
330
1E
100
AcDbEntity
  8
WK
100
AcDbText
 10
799.2878559999999
 20
574.2499999999999
 30
0.0
 40
2.5
  1
事
 41
0.59
100
AcDbText
  0
LINE
  5
EF
330
1E
100
AcDbEntity
  8
WK
100
AcDbLine
 10
737.6900019999999
 20
563.549988
 30
0.0
 11
742.3100019999999
 21
563.549988
 31
0.0
  0
LINE
  5
F0
330
1E
100
AcDbEntity
  8
WK
100
AcDbLine
 10
742.3100019999999
 20
563.549988
 30
0.0
 11
740.000002
 21
567.551025
 31
0.0
  0
LINE
  5
F1
330
1E
100
AcDbEntity
  8
WK
100
AcDbLine
 10
740.000002
 20
567.551025
 30
0.0
 11
737.6900019999999
 21
563.549988
 31
0.0
  0
LINE
  5
F2
330
1E
100
AcDbEntity
  8
WK
100
AcDbLine
 10
737.6900019999999
 20
568.349976
 30
0.0
 11
742.3100019999999
 21
568.349976
 31
0.0
  0
LINE
  5
F3
330
1E
100
AcDbEntity
  8
WK
100
AcDbLine
 10
742.3100019999999
 20
568.349976
 30
0.0
 11
740.000002
 21
572.351013
 31
0.0
  0
LINE
  5
F4
330
1E
100
AcDbEntity
  8
WK
100
AcDbLine
 10
740.000002
 20
572.351013
 30
0.0
 11
737.6900019999999
 21
568.349976
 31
0.0
  0
LINE
  5
F5
330
1E
100
AcDbEntity
  8
WK
100
AcDbLine
 10
737.6900019999999
 20
558.75
 30
0.0
 11
742.3100019999999
 21
558.75
 31
0.0
  0
LINE
  5
F6
330
1E
100
AcDbEntity
  8
WK
100
AcDbLine
 10
742.3100019999999
 20
558.75
 30
0.0
 11
740.000002
 21
562.751037
 31
0.0
  0
LINE
  5
F7
330
1E
100
AcDbEntity
  8
WK
100
AcDbLine
 10
740.000002
 20
562.751037
 30
0.0
 11
737.6900019999999
 21
558.75
 31
0.0
  0
LINE
  5
F8
330
1E
100
AcDbEntity
  8
KI1
100
AcDbLine
 10
100.5
 20
440.2499999999999
 30
0.0
 11
213.5
 21
440.2499999999999
 31
0.0
  0
LINE
  5
F9
330
1E
100
AcDbEntity
  8
KI1
100
AcDbLine
 10
213.5
 20
440.2499999999999
 30
0.0
 11
213.5
 21
314.25
 31
0.0
  0
LINE
  5
FA
330
1E
100
AcDbEntity
  8
KI1
100
AcDbLine
 10
100.5
 20
314.25
 30
0.0
 11
100.5
 21
440.2499999999999
 31
0.0
  0
LINE
  5
FB
330
1E
100
AcDbEntity
  8
KI1
100
AcDbLine
 10
173.0
 20
413.25
 30
0.0
 11
206.0
 21
413.25
 31
0.0
1001
GENIUS_GENREC_14
1002
{
1000
PYDIR
1011
173.0
1021
57.18205199999999
1031
0.0
1002
}
1002
{
1000
PXDIR
1011
210.4999999999999
1021
413.25
1031
0.0
1002
}
1002
{
1000
PORI
1011
173.0
1021
413.25
1031
0.0
1002
}
1002
{
1000
PINS
1011
173.0
1021
413.25
1031
0.0
1002
}
1002
{
1000
PINS2
1011
210.4999999999999
1021
57.18205199999999
1031
0.0
1002
}
1002
{
1000
C
1070
     1
1002
}
1001
GENIUS_GENOBJ-N-REC_13
1002
{
1000
OWNER
1000
GEN
1002
}
1001
GENIUS_GENODEF_13
1002
{
1000
HIER
1070
     0
1002
}
1002
{
1000
MANEDIT
1070
     0
1002
}
1002
{
1000
NOSEL
1070
     0
1002
}
1002
{
1000
BEHIND
1070
     0
1002
}
1002
{
1000
OTHER
1070
     0
1002
}
1002
{
1000
REACTOR
1002
}
  0
LINE
  5
FC
330
1E
100
AcDbEntity
  8
KI1
100
AcDbLine
 10
206.0
 20
413.25
 30
0.0
 11
206.0
 21
314.25
 31
0.0
1001
GENIUS_GENREC_14
1002
{
1000
PYDIR
1011
173.0
1021
57.18205199999999
1031
0.0
1002
}
1002
{
1000
PXDIR
1011
210.4999999999999
1021
413.25
1031
0.0
1002
}
1002
{
1000
PORI
1011
173.0
1021
413.25
1031
0.0
1002
}
1002
{
1000
PINS
1011
173.0
1021
413.25
1031
0.0
1002
}
1002
{
1000
PINS2
1011
210.4999999999999
1021
57.18205199999999
1031
0.0
1002
}
1002
{
1000
C
1070
     1
1002
}
1001
GENIUS_GENOBJ-N-REC_13
1002
{
1000
OWNER
1000
GEN
1002
}
1001
GENIUS_GENODEF_13
1002
{
1000
HIER
1070
     0
1002
}
1002
{
1000
MANEDIT
1070
     0
1002
}
1002
{
1000
NOSEL
1070
     0
1002
}
1002
{
1000
BEHIND
1070
     0
1002
}
1002
{
1000
OTHER
1070
     0
1002
}
1002
{
1000
REACTOR
1002
}
  0
LINE
  5
FD
330
1E
100
AcDbEntity
  8
KI1
100
AcDbLine
 10
173.0
 20
314.25
 30
0.0
 11
173.0
 21
413.25
 31
0.0
1001
GENIUS_GENREC_14
1002
{
1000
PYDIR
1011
173.0
1021
57.18205199999999
1031
0.0
1002
}
1002
{
1000
PXDIR
1011
210.4999999999999
1021
413.25
1031
0.0
1002
}
1002
{
1000
PORI
1011
173.0
1021
413.25
1031
0.0
1002
}
1002
{
1000
PINS
1011
173.0
1021
413.25
1031
0.0
1002
}
1002
{
1000
PINS2
1011
210.4999999999999
1021
57.18205199999999
1031
0.0
1002
}
1002
{
1000
C
1070
     1
1002
}
1001
GENIUS_GENOBJ-N-REC_13
1002
{
1000
OWNER
1000
GEN
1002
}
1001
GENIUS_GENODEF_13
1002
{
1000
HIER
1070
     0
1002
}
1002
{
1000
MANEDIT
1070
     0
1002
}
1002
{
1000
NOSEL
1070
     0
1002
}
1002
{
1000
BEHIND
1070
     0
1002
}
1002
{
1000
OTHER
1070
     0
1002
}
1002
{
1000
REACTOR
1002
}
  0
LINE
  5
FE
330
1E
100
AcDbEntity
  8
OS
100
AcDbLine
 10
178.0
 20
201.25
 30
0.0
 11
80.5
 21
201.25
 31
0.0
  0
LINE
  5
FF
330
1E
100
AcDbEntity
  8
OS
100
AcDbLine
 10
178.0
 20
204.2499999999999
 30
0.0
 11
80.5
 21
204.2499999999999
 31
0.0
  0
LINE
  5
100
330
1E
100
AcDbEntity
  8
OS
100
AcDbLine
 10
178.0
 20
207.25
 30
0.0
 11
80.5
 21
207.25
 31
0.0
  0
LINE
  5
101
330
1E
100
AcDbEntity
  8
OS
100
AcDbLine
 10
178.0
 20
210.25
 30
0.0
 11
80.5
 21
210.25
 31
0.0
  0
LINE
  5
102
330
1E
100
AcDbEntity
  8
OS
100
AcDbLine
 10
178.0
 20
198.25
 30
0.0
 11
80.5
 21
198.25
 31
0.0
  0
LINE
  5
103
330
1E
100
AcDbEntity
  8
KI1
100
AcDbLine
 10
100.5
 20
312.25
 30
0.0
 11
100.5
 21
255.259327
 31
0.0
  0
LINE
  5
104
330
1E
100
AcDbEntity
  8
KI1
100
AcDbLine
 10
100.5
 20
231.9579459999999
 30
0.0
 11
100.5
 21
210.25
 31
0.0
  0
LINE
  5
105
330
1E
100
AcDbEntity
  8
KI1
100
AcDbLine
 10
213.5
 20
312.25
 30
0.0
 11
213.5
 21
210.25
 31
0.0
  0
LINE
  5
106
330
1E
100
AcDbEntity
  8
KI1
100
AcDbLine
 10
178.0
 20
198.25
 30
0.0
 11
203.0
 21
198.25
 31
0.0
  0
LINE
  5
107
330
1E
100
AcDbEntity
  8
KI1
100
AcDbLine
 10
178.0
 20
198.25
 30
0.0
 11
178.0
 21
210.25
 31
0.0
  0
LINE
  5
108
330
1E
100
AcDbEntity
  8
KI1
100
AcDbLine
 10
203.0
 20
198.25
 30
0.0
 11
203.0
 21
210.25
 31
0.0
  0
LINE
  5
109
330
1E
100
AcDbEntity
  8
OS
100
AcDbLine
 10
233.4999999999999
 20
210.25
 30
0.0
 11
203.0
 21
210.25
 31
0.0
  0
LINE
  5
10A
330
1E
100
AcDbEntity
  8
OS
100
AcDbLine
 10
233.4999999999999
 20
207.25
 30
0.0
 11
203.0
 21
207.25
 31
0.0
  0
LINE
  5
10B
330
1E
100
AcDbEntity
  8
OS
100
AcDbLine
 10
233.4999999999999
 20
204.2499999999999
 30
0.0
 11
203.0
 21
204.2499999999999
 31
0.0
  0
LINE
  5
10C
330
1E
100
AcDbEntity
  8
OS
100
AcDbLine
 10
233.4999999999999
 20
198.25
 30
0.0
 11
203.0
 21
198.25
 31
0.0
  0
LINE
  5
10D
330
1E
100
AcDbEntity
  8
OS
100
AcDbLine
 10
233.4999999999999
 20
201.25
 30
0.0
 11
203.0
 21
201.25
 31
0.0
  0
LINE
  5
10E
330
1E
100
AcDbEntity
  8
KI1
100
AcDbLine
 10
206.0
 20
312.25
 30
0.0
 11
206.0
 21
220.25
 31
0.0
  0
LINE
  5
10F
330
1E
100
AcDbEntity
  8
KI1
100
AcDbLine
 10
173.0
 20
312.25
 30
0.0
 11
173.0
 21
220.25
 31
0.0
  0
LINE
  5
110
330
1E
100
AcDbEntity
  8
KI1
100
AcDbLine
 10
173.0
 20
220.25
 30
0.0
 11
206.0
 21
220.25
 31
0.0
  0
LINE
  5
111
330
1E
100
AcDbEntity
  8
KI1
100
AcDbLine
 10
203.0
 20
210.25
 30
0.0
 11
213.5
 21
210.25
 31
0.0
  0
LINE
  5
112
330
1E
100
AcDbEntity
  8
KI1
100
AcDbLine
 10
100.5
 20
210.25
 30
0.0
 11
178.0
 21
210.25
 31
0.0
  0
LINE
  5
113
330
1E
100
AcDbEntity
  8
OS
100
AcDbLine
 10
178.0
 20
210.25
 30
0.0
 11
178.0
 21
198.25
 31
0.0
  0
LINE
  5
114
330
1E
100
AcDbEntity
  8
OS
100
AcDbLine
 10
203.0
 20
210.25
 30
0.0
 11
203.0
 21
198.25
 31
0.0
  0
LINE
  5
115
330
1E
100
AcDbEntity
  8
OS
100
AcDbLine
 10
233.4999999999999
 20
60.25
 30
0.0
 11
80.5
 21
60.25
 31
0.0
  0
LINE
  5
116
330
1E
100
AcDbEntity
  8
KI1
100
AcDbLine
 10
100.5
 20
160.25
 30
0.0
 11
100.5
 21
105.259327
 31
0.0
  0
LINE
  5
117
330
1E
100
AcDbEntity
  8
KI1
100
AcDbLine
 10
100.5
 20
81.95794599999999
 30
0.0
 11
100.5
 21
60.25
 31
0.0
  0
LINE
  5
118
330
1E
100
AcDbEntity
  8
KI1
100
AcDbLine
 10
213.5
 20
160.25
 30
0.0
 11
213.5
 21
60.25
 31
0.0
  0
LINE
  5
119
330
1E
100
AcDbEntity
  8
OS
100
AcDbLine
 10
233.4999999999999
 20
57.25
 30
0.0
 11
80.5
 21
57.25
 31
0.0
  0
LINE
  5
11A
330
1E
100
AcDbEntity
  8
OS
100
AcDbLine
 10
233.4999999999999
 20
48.25
 30
0.0
 11
80.5
 21
48.25
 31
0.0
  0
LINE
  5
11B
330
1E
100
AcDbEntity
  8
OS
100
AcDbLine
 10
233.4999999999999
 20
51.25
 30
0.0
 11
80.5
 21
51.25
 31
0.0
  0
LINE
  5
11C
330
1E
100
AcDbEntity
  8
OS
100
AcDbLine
 10
233.4999999999999
 20
54.25
 30
0.0
 11
80.5
 21
54.25
 31
0.0
  0
LINE
  5
11D
330
1E
100
AcDbEntity
  8
KI1
100
AcDbLine
 10
100.5
 20
60.25
 30
0.0
 11
213.5
 21
60.25
 31
0.0
  0
LINE
  5
11E
330
1E
100
AcDbEntity
  8
KI1
100
AcDbLine
 10
206.0
 20
160.25
 30
0.0
 11
206.0
 21
73.25
 31
0.0
  0
LINE
  5
11F
330
1E
100
AcDbEntity
  8
KI1
100
AcDbLine
 10
173.0
 20
160.25
 30
0.0
 11
173.0
 21
73.25
 31
0.0
  0
LINE
  5
120
330
1E
100
AcDbEntity
  8
KI1
100
AcDbLine
 10
173.0
 20
73.25
 30
0.0
 11
206.0
 21
73.25
 31
0.0
  0
LINE
  5
121
330
1E
100
AcDbEntity
  8
KI1
100
AcDbLine
 10
383.4999999999999
 20
434.25
 30
0.0
 11
387.0
 21
434.25
 31
0.0
  0
LINE
  5
122
330
1E
100
AcDbEntity
  8
KI1
100
AcDbLine
 10
383.4999999999999
 20
526.25
 30
0.0
 11
383.4999999999999
 21
491.2593269999999
 31
0.0
  0
LINE
  5
123
330
1E
100
AcDbEntity
  8
KI1
100
AcDbLine
 10
383.4999999999999
 20
467.957946
 30
0.0
 11
383.4999999999999
 21
446.25
 31
0.0
  0
LINE
  5
124
330
1E
100
AcDbEntity
  8
TS
100
AcDbLine
 10
383.4999999999999
 20
446.25
 30
0.0
 11
383.4999999999999
 21
434.25
 31
0.0
  0
LINE
  5
125
330
1E
100
AcDbEntity
  8
OS
100
AcDbLine
 10
516.5
 20
434.25
 30
0.0
 11
363.5
 21
434.25
 31
0.0
  0
LINE
  5
126
330
1E
100
AcDbEntity
  8
OS
100
AcDbLine
 10
387.0
 20
446.25
 30
0.0
 11
363.5
 21
446.25
 31
0.0
  0
LINE
  5
127
330
1E
100
AcDbEntity
  8
OS
100
AcDbLine
 10
387.0
 20
443.25
 30
0.0
 11
363.5
 21
443.25
 31
0.0
  0
LINE
  5
128
330
1E
100
AcDbEntity
  8
OS
100
AcDbLine
 10
387.0
 20
440.2499999999999
 30
0.0
 11
363.5
 21
440.2499999999999
 31
0.0
  0
LINE
  5
129
330
1E
100
AcDbEntity
  8
OS
100
AcDbLine
 10
387.0
 20
437.25
 30
0.0
 11
363.5
 21
437.25
 31
0.0
  0
LINE
  5
12A
330
1E
100
AcDbEntity
  8
OS
100
AcDbLine
 10
516.5
 20
437.25
 30
0.0
 11
493.0
 21
437.25
 31
0.0
  0
LINE
  5
12B
330
1E
100
AcDbEntity
  8
OS
100
AcDbLine
 10
516.5
 20
440.2499999999999
 30
0.0
 11
493.0
 21
440.2499999999999
 31
0.0
  0
LINE
  5
12C
330
1E
100
AcDbEntity
  8
OS
100
AcDbLine
 10
516.5
 20
443.25
 30
0.0
 11
493.0
 21
443.25
 31
0.0
  0
LINE
  5
12D
330
1E
100
AcDbEntity
  8
OS
100
AcDbLine
 10
516.5
 20
446.25
 30
0.0
 11
493.0
 21
446.25
 31
0.0
  0
LINE
  5
12E
330
1E
100
AcDbEntity
  8
KI1
100
AcDbLine
 10
496.4999999999999
 20
526.25
 30
0.0
 11
496.4999999999999
 21
446.25
 31
0.0
  0
LINE
  5
12F
330
1E
100
AcDbEntity
  8
TS
100
AcDbLine
 10
496.4999999999999
 20
446.25
 30
0.0
 11
496.4999999999999
 21
434.25
 31
0.0
  0
LINE
  5
130
330
1E
100
AcDbEntity
  8
KI1
100
AcDbLine
 10
489.0
 20
526.25
 30
0.0
 11
489.0
 21
456.25
 31
0.0
  0
LINE
  5
131
330
1E
100
AcDbEntity
  8
KI1
100
AcDbLine
 10
456.0
 20
526.25
 30
0.0
 11
456.0
 21
456.25
 31
0.0
  0
LINE
  5
132
330
1E
100
AcDbEntity
  8
KI1
100
AcDbLine
 10
456.0
 20
456.25
 30
0.0
 11
489.0
 21
456.25
 31
0.0
  0
LINE
  5
133
330
1E
100
AcDbEntity
  8
TS
100
AcDbLine
 10
496.4999999999999
 20
434.25
 30
0.0
 11
387.0
 21
434.25
 31
0.0
  0
LINE
  5
134
330
1E
100
AcDbEntity
  8
OS
100
AcDbLine
 10
387.0
 20
446.75
 30
0.0
 11
387.0
 21
434.25
 31
0.0
  0
LINE
  5
135
330
1E
100
AcDbEntity
  8
OS
100
AcDbLine
 10
493.0
 20
446.25
 30
0.0
 11
493.0
 21
434.25
 31
0.0
  0
TEXT
  5
136
330
1E
100
AcDbEntity
  8
MJ
100
AcDbText
 10
105.2920709999999
 20
551.25
 30
0.0
 40
7.0
  1
ジャストカット枠
 41
0.8299999999999998
100
AcDbText
  0
TEXT
  5
137
330
1E
100
AcDbEntity
  8
MJ
100
AcDbText
 10
383.4999999999999
 20
551.25
 30
0.0
 40
7.0
  1
四方枠
 41
0.8299999999999998
100
AcDbText
  0
LINE
  5
138
330
1E
100
AcDbEntity
  8
SU
100
AcDbLine
 10
77.162122
 20
243.25
 30
0.0
 11
153.945866
 21
243.25
 31
0.0
  0
TEXT
  5
139
330
1E
100
AcDbEntity
  8
SU
100
AcDbText
 10
78.13793199999999
 20
245.5249999999999
 30
0.0
 40
7.0
  1
埋込沓摺（床先張り用）
 41
0.8299999999999998
100
AcDbText
  0
TEXT
  5
13A
330
1E
100
AcDbEntity
  8
SU
100
AcDbText
 10
78.13793199999999
 20
233.9749999999999
 30
0.0
 40
7.0
  1
［オプション］
 41
0.8299999999999998
100
AcDbText
  0
LINE
  5
13B
330
1E
100
AcDbEntity
  8
SU
100
AcDbLine
 10
153.945866
 20
243.25
 30
0.0
 11
172.1750199999999
 21
211.6761789999999
 31
0.0
  0
LINE
  5
13C
330
1E
100
AcDbEntity
  8
SU
100
AcDbLine
 10
72.14852900000001
 20
93.25000000000001
 30
0.0
 11
155.826616
 21
93.25000000000001
 31
0.0
  0
TEXT
  5
13D
330
1E
100
AcDbEntity
  8
SU
100
AcDbText
 10
73.12433900000001
 20
95.525
 30
0.0
 40
7.0
  1
直張り沓摺（床先張り用）
 41
0.8299999999999998
100
AcDbText
  0
TEXT
  5
13E
330
1E
100
AcDbEntity
  8
SU
100
AcDbText
 10
73.12433900000001
 20
83.97499999999999
 30
0.0
 40
7.0
  1
［オプション］
 41
0.8299999999999998
100
AcDbText
  0
LINE
  5
13F
330
1E
100
AcDbEntity
  8
SU
100
AcDbLine
 10
155.826616
 20
93.25000000000001
 30
0.0
 11
173.103924
 21
63.324825
 31
0.0
  0
LINE
  5
140
330
1E
100
AcDbEntity
  8
SU
100
AcDbLine
 10
331.144158
 20
479.25
 30
0.0
 11
399.50085
 21
479.25
 31
0.0
  0
TEXT
  5
141
330
1E
100
AcDbEntity
  8
SU
100
AcDbText
 10
332.1199669999999
 20
481.5249999999999
 30
0.0
 40
7.0
  1
薄沓摺（床後張り用）
 41
0.8299999999999998
100
AcDbText
  0
TEXT
  5
142
330
1E
100
AcDbEntity
  8
SU
100
AcDbText
 10
332.1199669999999
 20
469.975
 30
0.0
 40
7.0
  1
［オプション］
 41
0.8299999999999998
100
AcDbText
  0
LINE
  5
143
330
1E
100
AcDbEntity
  8
SU
100
AcDbLine
 10
399.50085
 20
479.25
 30
0.0
 11
419.213503
 21
445.106683
 31
0.0
  0
LINE
  5
144
330
1E
100
AcDbEntity
  8
TE
100
AcDbLine
 10
224.106602
 20
429.643398
 30
0.0
 11
202.893398
 21
450.8566019999999
 31
0.0
  0
LINE
  5
145
330
1E
100
AcDbEntity
  8
TE
100
AcDbLine
 10
202.89532
 20
429.6414759999999
 30
0.0
 11
224.1046799999999
 21
450.858524
 31
0.0
  0
LINE
  5
146
330
1E
100
AcDbEntity
  8
TE
100
AcDbLine
 10
224.106602
 20
199.6433979999999
 30
0.0
 11
202.893398
 21
220.856602
 31
0.0
  0
LINE
  5
147
330
1E
100
AcDbEntity
  8
TE
100
AcDbLine
 10
202.89532
 20
199.641476
 30
0.0
 11
224.1046799999999
 21
220.858524
 31
0.0
  0
LINE
  5
148
330
1E
100
AcDbEntity
  8
TE
100
AcDbLine
 10
224.106602
 20
49.643398
 30
0.0
 11
202.893398
 21
70.85660199999999
 31
0.0
  0
LINE
  5
149
330
1E
100
AcDbEntity
  8
TE
100
AcDbLine
 10
202.89532
 20
49.641476
 30
0.0
 11
224.1046799999999
 21
70.858524
 31
0.0
  0
LINE
  5
14A
330
1E
100
AcDbEntity
  8
TE
100
AcDbLine
 10
507.1066019999999
 20
435.643398
 30
0.0
 11
485.893398
 21
456.8566019999999
 31
0.0
  0
LINE
  5
14B
330
1E
100
AcDbEntity
  8
TE
100
AcDbLine
 10
485.89532
 20
435.6414759999999
 30
0.0
 11
507.1046799999999
 21
456.858524
 31
0.0
  0
LINE
  5
14C
330
1E
100
AcDbEntity
  8
KI1
100
AcDbLine
 10
389.4999999999999
 20
449.2499999999999
 30
0.0
 11
490.5
 21
449.2499999999999
 31
0.0
  0
LINE
  5
14D
330
1E
100
AcDbEntity
  8
KI1
100
AcDbLine
 10
493.0
 20
446.75
 30
0.0
 11
493.0
 21
434.25
 31
0.0
  0
LINE
  5
14E
330
1E
100
AcDbEntity
  8
KI1
100
AcDbLine
 10
387.0
 20
446.75
 30
0.0
 11
387.0
 21
434.25
 31
0.0
  0
LINE
  5
14F
330
1E
100
AcDbEntity
  8
KI1
100
AcDbLine
 10
387.0
 20
434.25
 30
0.0
 11
493.0
 21
434.25
 31
0.0
  0
LINE
  5
150
330
1E
100
AcDbEntity
  8
SU
100
AcDbLine
 10
206.0
 20
386.75
 30
0.0
 11
209.5
 21
386.75
 31
0.0
  0
LINE
  5
151
330
1E
100
AcDbEntity
  8
SU
100
AcDbLine
 10
230.116596
 20
386.75
 30
0.0
 11
209.5
 21
386.75
 31
0.0
  0
LINE
  5
152
330
1E
100
AcDbEntity
  8
SU
100
AcDbLine
 10
206.0
 20
412.25
 30
0.0
 11
206.0
 21
383.75
 31
0.0
  0
LINE
  5
153
330
1E
100
AcDbEntity
  8
SU
100
AcDbLine
 10
173.0
 20
386.75
 30
0.0
 11
206.0
 21
386.75
 31
0.0
  0
LINE
  5
154
330
1E
100
AcDbEntity
  8
SU
100
AcDbLine
 10
173.0
 20
412.25
 30
0.0
 11
173.0
 21
383.75
 31
0.0
  0
LINE
  5
155
330
1E
100
AcDbEntity
  8
SU
100
AcDbLine
 10
170.0
 20
386.75
 30
0.0
 11
173.0
 21
386.75
 31
0.0
  0
LINE
  5
156
330
1E
100
AcDbEntity
  8
SU
100
AcDbLine
 10
172.0
 20
386.75
 30
0.0
 11
164.639746
 21
371.75
 31
0.0
  0
LINE
  5
157
330
1E
100
AcDbEntity
  8
SU
100
AcDbLine
 10
164.639746
 20
371.75
 30
0.0
 11
157.889746
 21
371.75
 31
0.0
  0
LINE
  5
158
330
1E
100
AcDbEntity
  8
SU
100
AcDbLine
 10
170.0
 20
405.75
 30
0.0
 11
170.0
 21
383.75
 31
0.0
  0
LINE
  5
159
330
1E
100
AcDbEntity
  8
SU
100
AcDbLine
 10
152.0
 20
386.75
 30
0.0
 11
170.0
 21
386.75
 31
0.0
  0
LINE
  5
15A
330
1E
100
AcDbEntity
  8
SU
100
AcDbLine
 10
152.0
 20
405.75
 30
0.0
 11
152.0
 21
383.75
 31
0.0
  0
LINE
  5
15B
330
1E
100
AcDbEntity
  8
SU
100
AcDbLine
 10
104.4999999999999
 20
386.75
 30
0.0
 11
152.0
 21
386.75
 31
0.0
  0
LINE
  5
15C
330
1E
100
AcDbEntity
  8
SU
100
AcDbLine
 10
213.5
 20
439.25
 30
0.0
 11
213.5
 21
353.75
 31
0.0
  0
LINE
  5
15D
330
1E
100
AcDbEntity
  8
SU
100
AcDbLine
 10
209.5
 20
356.7499999999999
 30
0.0
 11
213.5
 21
356.7499999999999
 31
0.0
  0
LINE
  5
15E
330
1E
100
AcDbEntity
  8
SU
100
AcDbLine
 10
213.5
 20
356.7499999999999
 30
0.0
 11
224.7733329999999
 21
356.7499999999999
 31
0.0
  0
LINE
  5
15F
330
1E
100
AcDbEntity
  8
SU
100
AcDbLine
 10
209.5
 20
415.2499999999999
 30
0.0
 11
209.5
 21
353.75
 31
0.0
  0
LINE
  5
160
330
1E
100
AcDbEntity
  8
SU
100
AcDbLine
 10
104.4999999999999
 20
356.7499999999999
 30
0.0
 11
209.5
 21
356.7499999999999
 31
0.0
  0
LINE
  5
161
330
1E
100
AcDbEntity
  8
SU
100
AcDbLine
 10
104.4999999999999
 20
415.2499999999999
 30
0.0
 11
104.4999999999999
 21
353.75
 31
0.0
  0
LINE
  5
162
330
1E
100
AcDbEntity
  8
SU
100
AcDbLine
 10
100.5
 20
439.25
 30
0.0
 11
100.5
 21
353.75
 31
0.0
  0
LINE
  5
163
330
1E
100
AcDbEntity
  8
SU
100
AcDbLine
 10
104.4999999999999
 20
356.7499999999999
 30
0.0
 11
100.5
 21
356.7499999999999
 31
0.0
  0
LINE
  5
164
330
1E
100
AcDbEntity
  8
SU
100
AcDbLine
 10
100.5
 20
356.7499999999999
 30
0.0
 11
89.226667
 21
356.7499999999999
 31
0.0
  0
LINE
  5
165
330
1E
100
AcDbEntity
  8
KI1
100
AcDbLine
 10
153.000001
 20
416.2499999999999
 30
0.0
 11
104.4999999999999
 21
416.2499999999999
 31
0.0
  0
LINE
  5
166
330
1E
100
AcDbEntity
  8
KI1
100
AcDbLine
 10
104.4999999999999
 20
416.2499999999999
 30
0.0
 11
104.4999999999999
 21
440.2499999999999
 31
0.0
  0
LINE
  5
167
330
1E
100
AcDbEntity
  8
KI1
100
AcDbLine
 10
209.5
 20
416.2499999999999
 30
0.0
 11
168.999999
 21
416.2499999999999
 31
0.0
  0
LINE
  5
168
330
1E
100
AcDbEntity
  8
KI1
100
AcDbLine
 10
209.5
 20
440.2499999999999
 30
0.0
 11
209.5
 21
416.2499999999999
 31
0.0
  0
LINE
  5
169
330
1E
100
AcDbEntity
  8
SU
100
AcDbLine
 10
419.213503
 20
445.106683
 30
0.0
 11
417.7405189999999
 21
447.026242
 31
0.0
  0
LINE
  5
16A
330
1E
100
AcDbEntity
  8
SU
100
AcDbLine
 10
419.213503
 20
445.106683
 30
0.0
 11
418.287274
 21
447.342685
 31
0.0
  0
LINE
  5
16B
330
1E
100
AcDbEntity
  8
SU
100
AcDbLine
 10
173.103924
 20
63.324825
 30
0.0
 11
171.6309399999999
 21
65.244384
 31
0.0
  0
LINE
  5
16C
330
1E
100
AcDbEntity
  8
SU
100
AcDbLine
 10
173.103924
 20
63.324825
 30
0.0
 11
172.1776939999999
 21
65.560826
 31
0.0
  0
LINE
  5
16D
330
1E
100
AcDbEntity
  8
SU
100
AcDbLine
 10
172.1750199999999
 20
211.6761789999999
 30
0.0
 11
170.702036
 21
213.595737
 31
0.0
  0
LINE
  5
16E
330
1E
100
AcDbEntity
  8
SU
100
AcDbLine
 10
172.1750199999999
 20
211.6761789999999
 30
0.0
 11
171.2487909999999
 21
213.9121799999999
 31
0.0
  0
LINE
  5
16F
330
1E
100
AcDbEntity
  8
SU
100
AcDbLine
 10
496.4999999999999
 20
433.25
 30
0.0
 11
496.4999999999999
 21
411.2499999999999
 31
0.0
  0
LINE
  5
170
330
1E
100
AcDbEntity
  8
SU
100
AcDbLine
 10
493.0
 20
414.25
 30
0.0
 11
496.4999999999999
 21
414.25
 31
0.0
  0
LINE
  5
171
330
1E
100
AcDbEntity
  8
SU
100
AcDbLine
 10
496.4999999999999
 20
414.25
 30
0.0
 11
513.8861249999999
 21
414.25
 31
0.0
  0
LINE
  5
172
330
1E
100
AcDbEntity
  8
SU
100
AcDbLine
 10
383.4999999999999
 20
433.25
 30
0.0
 11
383.4999999999999
 21
411.2499999999999
 31
0.0
  0
LINE
  5
173
330
1E
100
AcDbEntity
  8
SU
100
AcDbLine
 10
387.0
 20
414.25
 30
0.0
 11
383.4999999999999
 21
414.25
 31
0.0
  0
LINE
  5
174
330
1E
100
AcDbEntity
  8
SU
100
AcDbLine
 10
383.4999999999999
 20
414.25
 30
0.0
 11
366.6176409999999
 21
414.25
 31
0.0
  0
LINE
  5
175
330
1E
100
AcDbEntity
  8
SU
100
AcDbLine
 10
387.0
 20
433.25
 30
0.0
 11
387.0
 21
411.2499999999999
 31
0.0
  0
LINE
  5
176
330
1E
100
AcDbEntity
  8
SU
100
AcDbLine
 10
493.0
 20
433.25
 30
0.0
 11
493.0
 21
411.2499999999999
 31
0.0
  0
LINE
  5
177
330
1E
100
AcDbEntity
  8
SU
100
AcDbLine
 10
387.0
 20
414.25
 30
0.0
 11
493.0
 21
414.25
 31
0.0
  0
LINE
  5
178
330
1E
100
AcDbEntity
  8
SU
100
AcDbLine
 10
517.4999999999999
 20
434.25
 30
0.0
 11
569.5
 21
434.25
 31
0.0
  0
LINE
  5
179
330
1E
100
AcDbEntity
  8
SU
100
AcDbLine
 10
566.5
 20
446.25
 30
0.0
 11
566.5
 21
434.25
 31
0.0
  0
LINE
  5
17A
330
1E
100
AcDbEntity
  8
SU
100
AcDbLine
 10
572.4999959999999
 20
456.25
 30
0.0
 11
560.5
 21
456.25
 31
0.0
  0
LINE
  5
17B
330
1E
100
AcDbEntity
  8
SU
100
AcDbLine
 10
572.379996
 20
456.05
 30
0.0
 11
560.62
 21
456.05
 31
0.0
  0
LINE
  5
17C
330
1E
100
AcDbEntity
  8
SU
100
AcDbLine
 10
572.259996
 20
455.85
 30
0.0
 11
560.74
 21
455.85
 31
0.0
  0
LINE
  5
17D
330
1E
100
AcDbEntity
  8
SU
100
AcDbLine
 10
572.139997
 20
455.6500009999999
 30
0.0
 11
560.86
 21
455.6500009999999
 31
0.0
  0
LINE
  5
17E
330
1E
100
AcDbEntity
  8
SU
100
AcDbLine
 10
572.019997
 20
455.4500009999999
 30
0.0
 11
560.9799989999999
 21
455.4500009999999
 31
0.0
  0
LINE
  5
17F
330
1E
100
AcDbEntity
  8
SU
100
AcDbLine
 10
571.8999969999999
 20
455.250001
 30
0.0
 11
561.099999
 21
455.250001
 31
0.0
  0
LINE
  5
180
330
1E
100
AcDbEntity
  8
SU
100
AcDbLine
 10
571.7799969999999
 20
455.0500009999999
 30
0.0
 11
561.219999
 21
455.0500009999999
 31
0.0
  0
LINE
  5
181
330
1E
100
AcDbEntity
  8
SU
100
AcDbLine
 10
571.659998
 20
454.8500009999999
 30
0.0
 11
561.339999
 21
454.8500009999999
 31
0.0
  0
LINE
  5
182
330
1E
100
AcDbEntity
  8
SU
100
AcDbLine
 10
571.539998
 20
454.6500019999999
 30
0.0
 11
561.459999
 21
454.6500019999999
 31
0.0
  0
LINE
  5
183
330
1E
100
AcDbEntity
  8
SU
100
AcDbLine
 10
571.419998
 20
454.450002
 30
0.0
 11
561.579999
 21
454.450002
 31
0.0
  0
LINE
  5
184
330
1E
100
AcDbEntity
  8
SU
100
AcDbLine
 10
571.2999980000001
 20
454.2500019999999
 30
0.0
 11
561.699999
 21
454.2500019999999
 31
0.0
  0
LINE
  5
185
330
1E
100
AcDbEntity
  8
SU
100
AcDbLine
 10
571.1799980000001
 20
454.0500019999999
 30
0.0
 11
561.819999
 21
454.0500019999999
 31
0.0
  0
LINE
  5
186
330
1E
100
AcDbEntity
  8
SU
100
AcDbLine
 10
571.059999
 20
453.8500019999999
 30
0.0
 11
561.939999
 21
453.8500019999999
 31
0.0
  0
LINE
  5
187
330
1E
100
AcDbEntity
  8
SU
100
AcDbLine
 10
570.939999
 20
453.650003
 30
0.0
 11
562.059999
 21
453.650003
 31
0.0
  0
LINE
  5
188
330
1E
100
AcDbEntity
  8
SU
100
AcDbLine
 10
570.699999
 20
453.250003
 30
0.0
 11
562.2999980000001
 21
453.250003
 31
0.0
  0
LINE
  5
189
330
1E
100
AcDbEntity
  8
SU
100
AcDbLine
 10
570.819999
 20
453.450003
 30
0.0
 11
562.179998
 21
453.450003
 31
0.0
  0
LINE
  5
18A
330
1E
100
AcDbEntity
  8
SU
100
AcDbLine
 10
569.979999
 20
452.0500039999999
 30
0.0
 11
563.0199980000001
 21
452.0500039999999
 31
0.0
  0
LINE
  5
18B
330
1E
100
AcDbEntity
  8
SU
100
AcDbLine
 10
569.8600009999999
 20
451.850004
 30
0.0
 11
563.139997
 21
451.850004
 31
0.0
  0
LINE
  5
18C
330
1E
100
AcDbEntity
  8
SU
100
AcDbLine
 10
569.7400009999999
 20
451.650004
 30
0.0
 11
563.259997
 21
451.650004
 31
0.0
  0
LINE
  5
18D
330
1E
100
AcDbEntity
  8
SU
100
AcDbLine
 10
569.620001
 20
451.4500049999999
 30
0.0
 11
563.379997
 21
451.4500049999999
 31
0.0
  0
LINE
  5
18E
330
1E
100
AcDbEntity
  8
SU
100
AcDbLine
 10
569.500001
 20
451.2500049999999
 30
0.0
 11
563.4999969999999
 21
451.2500049999999
 31
0.0
  0
LINE
  5
18F
330
1E
100
AcDbEntity
  8
SU
100
AcDbLine
 10
569.380001
 20
451.050005
 30
0.0
 11
563.6199969999999
 21
451.050005
 31
0.0
  0
LINE
  5
190
330
1E
100
AcDbEntity
  8
SU
100
AcDbLine
 10
569.2600009999999
 20
450.8500049999999
 30
0.0
 11
563.739997
 21
450.8500049999999
 31
0.0
  0
LINE
  5
191
330
1E
100
AcDbEntity
  8
SU
100
AcDbLine
 10
569.1400009999999
 20
450.6500049999999
 30
0.0
 11
563.859997
 21
450.6500049999999
 31
0.0
  0
LINE
  5
192
330
1E
100
AcDbEntity
  8
SU
100
AcDbLine
 10
569.0200009999999
 20
450.4500059999999
 30
0.0
 11
563.979997
 21
450.4500059999999
 31
0.0
  0
LINE
  5
193
330
1E
100
AcDbEntity
  8
SU
100
AcDbLine
 10
568.9000019999999
 20
450.250006
 30
0.0
 11
564.099997
 21
450.250006
 31
0.0
  0
LINE
  5
194
330
1E
100
AcDbEntity
  8
SU
100
AcDbLine
 10
568.780002
 20
450.0500059999999
 30
0.0
 11
564.219996
 21
450.0500059999999
 31
0.0
  0
LINE
  5
195
330
1E
100
AcDbEntity
  8
SU
100
AcDbLine
 10
568.6600030000001
 20
449.8500059999999
 30
0.0
 11
564.339996
 21
449.8500059999999
 31
0.0
  0
LINE
  5
196
330
1E
100
AcDbEntity
  8
SU
100
AcDbLine
 10
568.5400030000001
 20
449.6500059999999
 30
0.0
 11
564.459996
 21
449.6500059999999
 31
0.0
  0
LINE
  5
197
330
1E
100
AcDbEntity
  8
SU
100
AcDbLine
 10
568.420003
 20
449.4500069999999
 30
0.0
 11
564.579996
 21
449.4500069999999
 31
0.0
  0
LINE
  5
198
330
1E
100
AcDbEntity
  8
SU
100
AcDbLine
 10
568.300003
 20
449.250007
 30
0.0
 11
564.6999959999999
 21
449.250007
 31
0.0
  0
LINE
  5
199
330
1E
100
AcDbEntity
  8
SU
100
AcDbLine
 10
568.180003
 20
449.050007
 30
0.0
 11
564.8199959999999
 21
449.050007
 31
0.0
  0
LINE
  5
19A
330
1E
100
AcDbEntity
  8
SU
100
AcDbLine
 10
568.060003
 20
448.8500069999999
 30
0.0
 11
564.9399959999999
 21
448.8500069999999
 31
0.0
  0
LINE
  5
19B
330
1E
100
AcDbEntity
  8
SU
100
AcDbLine
 10
567.940003
 20
448.6500069999999
 30
0.0
 11
565.059996
 21
448.6500069999999
 31
0.0
  0
LINE
  5
19C
330
1E
100
AcDbEntity
  8
SU
100
AcDbLine
 10
567.700004
 20
448.250008
 30
0.0
 11
565.2999949999999
 21
448.250008
 31
0.0
  0
LINE
  5
19D
330
1E
100
AcDbEntity
  8
SU
100
AcDbLine
 10
567.820003
 20
448.450007
 30
0.0
 11
565.1799959999999
 21
448.450007
 31
0.0
  0
LINE
  5
19E
330
1E
100
AcDbEntity
  8
SU
100
AcDbLine
 10
567.580004
 20
448.0500079999999
 30
0.0
 11
565.4199949999999
 21
448.0500079999999
 31
0.0
  0
LINE
  5
19F
330
1E
100
AcDbEntity
  8
SU
100
AcDbLine
 10
567.460004
 20
447.8500079999999
 30
0.0
 11
565.5399949999999
 21
447.8500079999999
 31
0.0
  0
LINE
  5
1A0
330
1E
100
AcDbEntity
  8
SU
100
AcDbLine
 10
567.340004
 20
447.650008
 30
0.0
 11
565.6599949999999
 21
447.650008
 31
0.0
  0
LINE
  5
1A1
330
1E
100
AcDbEntity
  8
SU
100
AcDbLine
 10
567.2200049999999
 20
447.450008
 30
0.0
 11
565.779995
 21
447.450008
 31
0.0
  0
LINE
  5
1A2
330
1E
100
AcDbEntity
  8
SU
100
AcDbLine
 10
567.1000049999999
 20
447.2500089999999
 30
0.0
 11
565.899995
 21
447.2500089999999
 31
0.0
  0
LINE
  5
1A3
330
1E
100
AcDbEntity
  8
SU
100
AcDbLine
 10
566.860003
 20
446.850009
 30
0.0
 11
566.1399949999999
 21
446.850009
 31
0.0
  0
LINE
  5
1A4
330
1E
100
AcDbEntity
  8
SU
100
AcDbLine
 10
566.980005
 20
447.0500089999999
 30
0.0
 11
566.0199949999999
 21
447.0500089999999
 31
0.0
  0
LINE
  5
1A5
330
1E
100
AcDbEntity
  8
SU
100
AcDbLine
 10
566.740003
 20
446.650009
 30
0.0
 11
566.2599949999999
 21
446.650009
 31
0.0
  0
LINE
  5
1A6
330
1E
100
AcDbEntity
  8
SU
100
AcDbLine
 10
566.5000019999999
 20
446.249996
 30
0.0
 11
560.5
 21
456.25
 31
0.0
  0
LINE
  5
1A7
330
1E
100
AcDbEntity
  8
SU
100
AcDbLine
 10
566.620008
 20
446.450012
 30
0.0
 11
566.379992
 21
446.450012
 31
0.0
  0
LINE
  5
1A8
330
1E
100
AcDbEntity
  8
SU
100
AcDbLine
 10
566.5
 20
446.25
 30
0.0
 11
572.4999959999999
 21
456.25
 31
0.0
  0
LINE
  5
1A9
330
1E
100
AcDbEntity
  8
SU
100
AcDbLine
 10
570.1
 20
452.2500039999999
 30
0.0
 11
562.8999980000001
 21
452.2500039999999
 31
0.0
  0
LINE
  5
1AA
330
1E
100
AcDbEntity
  8
SU
100
AcDbLine
 10
570.22
 20
452.4500039999999
 30
0.0
 11
562.779998
 21
452.4500039999999
 31
0.0
  0
LINE
  5
1AB
330
1E
100
AcDbEntity
  8
SU
100
AcDbLine
 10
570.339999
 20
452.650003
 30
0.0
 11
562.659998
 21
452.650003
 31
0.0
  0
LINE
  5
1AC
330
1E
100
AcDbEntity
  8
SU
100
AcDbLine
 10
570.459999
 20
452.850003
 30
0.0
 11
562.539998
 21
452.850003
 31
0.0
  0
LINE
  5
1AD
330
1E
100
AcDbEntity
  8
SU
100
AcDbLine
 10
570.579999
 20
453.0500029999999
 30
0.0
 11
562.4199980000001
 21
453.0500029999999
 31
0.0
  0
LINE
  5
1AE
330
1E
100
AcDbEntity
  8
SU
100
AcDbLine
 10
551.4999999999999
 20
449.2499999999999
 30
0.0
 11
551.4999999999999
 21
446.25
 31
0.0
  0
LINE
  5
1AF
330
1E
100
AcDbEntity
  8
SU
100
AcDbLine
 10
551.4999999999999
 20
446.25
 30
0.0
 11
551.4999999999999
 21
437.873466
 31
0.0
  0
LINE
  5
1B0
330
1E
100
AcDbEntity
  8
SU
100
AcDbLine
 10
494.5
 20
449.2499999999999
 30
0.0
 11
554.4999999999999
 21
449.2499999999999
 31
0.0
  0
LINE
  5
1B1
330
1E
100
AcDbEntity
  8
SU
100
AcDbLine
 10
551.4999999999999
 20
456.25
 30
0.0
 11
551.4999999999999
 21
449.2499999999999
 31
0.0
  0
LINE
  5
1B2
330
1E
100
AcDbEntity
  8
SU
100
AcDbLine
 10
490.0
 20
456.25
 30
0.0
 11
554.4999999999999
 21
456.25
 31
0.0
  0
LINE
  5
1B3
330
1E
100
AcDbEntity
  8
SU
100
AcDbLine
 10
551.4999999999999
 20
456.25
 30
0.0
 11
551.4999999999999
 21
526.25
 31
0.0
  0
LINE
  5
1B4
330
1E
100
AcDbEntity
  8
SU
100
AcDbLine
 10
517.4999999999999
 20
446.25
 30
0.0
 11
569.5
 21
446.25
 31
0.0
  0
LINE
  5
1B5
330
1E
100
AcDbEntity
  8
SU
100
AcDbLine
 10
566.5
 20
446.25
 30
0.0
 11
566.5
 21
526.25
 31
0.0
  0
LINE
  5
1B6
330
1E
100
AcDbEntity
  8
SU
100
AcDbLine
 10
213.5
 20
61.25
 30
0.0
 11
213.5
 21
96.25
 31
0.0
  0
LINE
  5
1B7
330
1E
100
AcDbEntity
  8
SU
100
AcDbLine
 10
208.4999999999999
 20
93.25000000000001
 30
0.0
 11
213.5
 21
93.25000000000001
 31
0.0
  0
LINE
  5
1B8
330
1E
100
AcDbEntity
  8
SU
100
AcDbLine
 10
226.16501
 20
93.25000000000001
 30
0.0
 11
213.5
 21
93.25000000000001
 31
0.0
  0
LINE
  5
1B9
330
1E
100
AcDbEntity
  8
SU
100
AcDbLine
 10
170.5
 20
62.45
 30
0.0
 11
170.5
 21
96.25
 31
0.0
  0
LINE
  5
1BA
330
1E
100
AcDbEntity
  8
SU
100
AcDbLine
 10
208.4999999999999
 20
62.45
 30
0.0
 11
208.4999999999999
 21
96.25
 31
0.0
  0
LINE
  5
1BB
330
1E
100
AcDbEntity
  8
SU
100
AcDbLine
 10
170.5
 20
93.25000000000001
 30
0.0
 11
208.4999999999999
 21
93.25000000000001
 31
0.0
  0
LINE
  5
1BC
330
1E
100
AcDbEntity
  8
SU
100
AcDbLine
 10
289.499996
 20
70.25
 30
0.0
 11
277.4999999999999
 21
70.25
 31
0.0
  0
LINE
  5
1BD
330
1E
100
AcDbEntity
  8
SU
100
AcDbLine
 10
289.3799959999999
 20
70.04999999999999
 30
0.0
 11
277.62
 21
70.04999999999999
 31
0.0
  0
LINE
  5
1BE
330
1E
100
AcDbEntity
  8
SU
100
AcDbLine
 10
289.259996
 20
69.84999999999999
 30
0.0
 11
277.74
 21
69.84999999999999
 31
0.0
  0
LINE
  5
1BF
330
1E
100
AcDbEntity
  8
SU
100
AcDbLine
 10
289.139997
 20
69.65000100000001
 30
0.0
 11
277.86
 21
69.65000100000001
 31
0.0
  0
LINE
  5
1C0
330
1E
100
AcDbEntity
  8
SU
100
AcDbLine
 10
289.019997
 20
69.450001
 30
0.0
 11
277.98
 21
69.450001
 31
0.0
  0
LINE
  5
1C1
330
1E
100
AcDbEntity
  8
SU
100
AcDbLine
 10
288.899997
 20
69.250001
 30
0.0
 11
278.099999
 21
69.250001
 31
0.0
  0
LINE
  5
1C2
330
1E
100
AcDbEntity
  8
SU
100
AcDbLine
 10
288.779997
 20
69.05000099999999
 30
0.0
 11
278.219999
 21
69.05000099999999
 31
0.0
  0
LINE
  5
1C3
330
1E
100
AcDbEntity
  8
SU
100
AcDbLine
 10
288.6599979999999
 20
68.850001
 30
0.0
 11
278.339999
 21
68.850001
 31
0.0
  0
LINE
  5
1C4
330
1E
100
AcDbEntity
  8
SU
100
AcDbLine
 10
288.539998
 20
68.650001
 30
0.0
 11
278.459999
 21
68.650001
 31
0.0
  0
LINE
  5
1C5
330
1E
100
AcDbEntity
  8
SU
100
AcDbLine
 10
288.419998
 20
68.450002
 30
0.0
 11
278.579999
 21
68.450002
 31
0.0
  0
LINE
  5
1C6
330
1E
100
AcDbEntity
  8
SU
100
AcDbLine
 10
288.299998
 20
68.25000199999999
 30
0.0
 11
278.699999
 21
68.25000199999999
 31
0.0
  0
LINE
  5
1C7
330
1E
100
AcDbEntity
  8
SU
100
AcDbLine
 10
288.179998
 20
68.05000200000001
 30
0.0
 11
278.8199989999999
 21
68.05000200000001
 31
0.0
  0
LINE
  5
1C8
330
1E
100
AcDbEntity
  8
SU
100
AcDbLine
 10
288.0599989999999
 20
67.850002
 30
0.0
 11
278.939999
 21
67.850002
 31
0.0
  0
LINE
  5
1C9
330
1E
100
AcDbEntity
  8
SU
100
AcDbLine
 10
287.9399989999999
 20
67.650002
 30
0.0
 11
279.059999
 21
67.650002
 31
0.0
  0
LINE
  5
1CA
330
1E
100
AcDbEntity
  8
SU
100
AcDbLine
 10
287.699999
 20
67.25000300000001
 30
0.0
 11
279.299998
 21
67.25000300000001
 31
0.0
  0
LINE
  5
1CB
330
1E
100
AcDbEntity
  8
SU
100
AcDbLine
 10
287.819999
 20
67.450003
 30
0.0
 11
279.1799979999999
 21
67.450003
 31
0.0
  0
LINE
  5
1CC
330
1E
100
AcDbEntity
  8
SU
100
AcDbLine
 10
286.98
 20
66.050004
 30
0.0
 11
280.019998
 21
66.050004
 31
0.0
  0
LINE
  5
1CD
330
1E
100
AcDbEntity
  8
SU
100
AcDbLine
 10
286.8600009999999
 20
65.850004
 30
0.0
 11
280.1399979999999
 21
65.850004
 31
0.0
  0
LINE
  5
1CE
330
1E
100
AcDbEntity
  8
SU
100
AcDbLine
 10
286.7400009999999
 20
65.65000400000001
 30
0.0
 11
280.259997
 21
65.65000400000001
 31
0.0
  0
LINE
  5
1CF
330
1E
100
AcDbEntity
  8
SU
100
AcDbLine
 10
286.620001
 20
65.450005
 30
0.0
 11
280.379997
 21
65.450005
 31
0.0
  0
LINE
  5
1D0
330
1E
100
AcDbEntity
  8
SU
100
AcDbLine
 10
286.500001
 20
65.250005
 30
0.0
 11
280.499997
 21
65.250005
 31
0.0
  0
LINE
  5
1D1
330
1E
100
AcDbEntity
  8
SU
100
AcDbLine
 10
286.3800009999999
 20
65.050005
 30
0.0
 11
280.619997
 21
65.050005
 31
0.0
  0
LINE
  5
1D2
330
1E
100
AcDbEntity
  8
SU
100
AcDbLine
 10
286.2600009999999
 20
64.85000500000001
 30
0.0
 11
280.739997
 21
64.85000500000001
 31
0.0
  0
LINE
  5
1D3
330
1E
100
AcDbEntity
  8
SU
100
AcDbLine
 10
286.140001
 20
64.65000500000001
 30
0.0
 11
280.859997
 21
64.65000500000001
 31
0.0
  0
LINE
  5
1D4
330
1E
100
AcDbEntity
  8
SU
100
AcDbLine
 10
286.0200009999999
 20
64.450005
 30
0.0
 11
280.979997
 21
64.450005
 31
0.0
  0
LINE
  5
1D5
330
1E
100
AcDbEntity
  8
SU
100
AcDbLine
 10
285.9000009999999
 20
64.250006
 30
0.0
 11
281.099997
 21
64.250006
 31
0.0
  0
LINE
  5
1D6
330
1E
100
AcDbEntity
  8
SU
100
AcDbLine
 10
285.780002
 20
64.05000600000001
 30
0.0
 11
281.219996
 21
64.05000600000001
 31
0.0
  0
LINE
  5
1D7
330
1E
100
AcDbEntity
  8
SU
100
AcDbLine
 10
285.6600029999999
 20
63.85000600000001
 30
0.0
 11
281.3399959999999
 21
63.85000600000001
 31
0.0
  0
LINE
  5
1D8
330
1E
100
AcDbEntity
  8
SU
100
AcDbLine
 10
285.5400029999999
 20
63.65000600000001
 30
0.0
 11
281.4599959999999
 21
63.65000600000001
 31
0.0
  0
LINE
  5
1D9
330
1E
100
AcDbEntity
  8
SU
100
AcDbLine
 10
285.4200029999999
 20
63.45000600000001
 30
0.0
 11
281.579996
 21
63.45000600000001
 31
0.0
  0
LINE
  5
1DA
330
1E
100
AcDbEntity
  8
SU
100
AcDbLine
 10
285.300003
 20
63.250007
 30
0.0
 11
281.699996
 21
63.250007
 31
0.0
  0
LINE
  5
1DB
330
1E
100
AcDbEntity
  8
SU
100
AcDbLine
 10
285.180003
 20
63.05000699999999
 30
0.0
 11
281.819996
 21
63.05000699999999
 31
0.0
  0
LINE
  5
1DC
330
1E
100
AcDbEntity
  8
SU
100
AcDbLine
 10
285.0600029999999
 20
62.850007
 30
0.0
 11
281.939996
 21
62.850007
 31
0.0
  0
LINE
  5
1DD
330
1E
100
AcDbEntity
  8
SU
100
AcDbLine
 10
284.9400029999999
 20
62.65000699999999
 30
0.0
 11
282.059996
 21
62.65000699999999
 31
0.0
  0
LINE
  5
1DE
330
1E
100
AcDbEntity
  8
SU
100
AcDbLine
 10
284.7000039999999
 20
62.250008
 30
0.0
 11
282.299995
 21
62.250008
 31
0.0
  0
LINE
  5
1DF
330
1E
100
AcDbEntity
  8
SU
100
AcDbLine
 10
284.820003
 20
62.45000699999999
 30
0.0
 11
282.179996
 21
62.45000699999999
 31
0.0
  0
LINE
  5
1E0
330
1E
100
AcDbEntity
  8
SU
100
AcDbLine
 10
284.580004
 20
62.050008
 30
0.0
 11
282.419995
 21
62.050008
 31
0.0
  0
LINE
  5
1E1
330
1E
100
AcDbEntity
  8
SU
100
AcDbLine
 10
284.460004
 20
61.850008
 30
0.0
 11
282.539995
 21
61.850008
 31
0.0
  0
LINE
  5
1E2
330
1E
100
AcDbEntity
  8
SU
100
AcDbLine
 10
284.340004
 20
61.65000799999999
 30
0.0
 11
282.659995
 21
61.65000799999999
 31
0.0
  0
LINE
  5
1E3
330
1E
100
AcDbEntity
  8
SU
100
AcDbLine
 10
284.2200049999999
 20
61.450008
 30
0.0
 11
282.779995
 21
61.450008
 31
0.0
  0
LINE
  5
1E4
330
1E
100
AcDbEntity
  8
SU
100
AcDbLine
 10
284.1000049999999
 20
61.25000899999999
 30
0.0
 11
282.899995
 21
61.25000899999999
 31
0.0
  0
LINE
  5
1E5
330
1E
100
AcDbEntity
  8
SU
100
AcDbLine
 10
283.860003
 20
60.850009
 30
0.0
 11
283.139995
 21
60.850009
 31
0.0
  0
LINE
  5
1E6
330
1E
100
AcDbEntity
  8
SU
100
AcDbLine
 10
283.980005
 20
61.050009
 30
0.0
 11
283.0199949999999
 21
61.050009
 31
0.0
  0
LINE
  5
1E7
330
1E
100
AcDbEntity
  8
SU
100
AcDbLine
 10
283.7400029999999
 20
60.650009
 30
0.0
 11
283.259995
 21
60.650009
 31
0.0
  0
LINE
  5
1E8
330
1E
100
AcDbEntity
  8
SU
100
AcDbLine
 10
283.5000019999999
 20
60.249996
 30
0.0
 11
277.4999999999999
 21
70.25
 31
0.0
  0
LINE
  5
1E9
330
1E
100
AcDbEntity
  8
SU
100
AcDbLine
 10
283.6200079999999
 20
60.450012
 30
0.0
 11
283.379992
 21
60.450012
 31
0.0
  0
LINE
  5
1EA
330
1E
100
AcDbEntity
  8
SU
100
AcDbLine
 10
283.4999999999999
 20
60.25
 30
0.0
 11
289.499996
 21
70.25
 31
0.0
  0
LINE
  5
1EB
330
1E
100
AcDbEntity
  8
SU
100
AcDbLine
 10
287.1
 20
66.25000400000001
 30
0.0
 11
279.899998
 21
66.25000400000001
 31
0.0
  0
LINE
  5
1EC
330
1E
100
AcDbEntity
  8
SU
100
AcDbLine
 10
287.22
 20
66.450004
 30
0.0
 11
279.7799979999999
 21
66.450004
 31
0.0
  0
LINE
  5
1ED
330
1E
100
AcDbEntity
  8
SU
100
AcDbLine
 10
287.339999
 20
66.65000299999999
 30
0.0
 11
279.6599979999999
 21
66.65000299999999
 31
0.0
  0
LINE
  5
1EE
330
1E
100
AcDbEntity
  8
SU
100
AcDbLine
 10
287.459999
 20
66.850003
 30
0.0
 11
279.539998
 21
66.850003
 31
0.0
  0
LINE
  5
1EF
330
1E
100
AcDbEntity
  8
SU
100
AcDbLine
 10
287.579999
 20
67.050003
 30
0.0
 11
279.419998
 21
67.050003
 31
0.0
  0
LINE
  5
1F0
330
1E
100
AcDbEntity
  8
SU
100
AcDbLine
 10
268.5
 20
65.04999999999999
 30
0.0
 11
268.5
 21
60.25
 31
0.0
  0
LINE
  5
1F1
330
1E
100
AcDbEntity
  8
SU
100
AcDbLine
 10
268.5
 20
60.25
 30
0.0
 11
268.5
 21
41.894
 31
0.0
  0
LINE
  5
1F2
330
1E
100
AcDbEntity
  8
SU
100
AcDbLine
 10
204.4999999999999
 20
65.04999999999999
 30
0.0
 11
271.4999999999999
 21
65.04999999999999
 31
0.0
  0
LINE
  5
1F3
330
1E
100
AcDbEntity
  8
SU
100
AcDbLine
 10
268.5
 20
73.25
 30
0.0
 11
268.5
 21
65.04999999999999
 31
0.0
  0
LINE
  5
1F4
330
1E
100
AcDbEntity
  8
SU
100
AcDbLine
 10
268.5
 20
69.15
 30
0.0
 11
253.5
 21
76.510254
 31
0.0
  0
LINE
  5
1F5
330
1E
100
AcDbEntity
  8
SU
100
AcDbLine
 10
253.5
 20
76.510254
 30
0.0
 11
253.5
 21
90.066254
 31
0.0
  0
LINE
  5
1F6
330
1E
100
AcDbEntity
  8
SU
100
AcDbLine
 10
207.0
 20
73.25
 30
0.0
 11
271.4999999999999
 21
73.25
 31
0.0
  0
LINE
  5
1F7
330
1E
100
AcDbEntity
  8
SU
100
AcDbLine
 10
268.5
 20
73.25
 30
0.0
 11
268.5
 21
160.25
 31
0.0
  0
LINE
  5
1F8
330
1E
100
AcDbEntity
  8
SU
100
AcDbLine
 10
234.5
 20
60.25
 30
0.0
 11
286.5
 21
60.25
 31
0.0
  0
LINE
  5
1F9
330
1E
100
AcDbEntity
  8
SU
100
AcDbLine
 10
283.4999999999999
 20
60.25
 30
0.0
 11
283.4999999999999
 21
160.25
 31
0.0
  0
LINE
  5
1FA
330
1E
100
AcDbEntity
  8
SU
100
AcDbLine
 10
213.5
 20
211.2499999999999
 30
0.0
 11
213.5
 21
246.2499999999999
 31
0.0
  0
LINE
  5
1FB
330
1E
100
AcDbEntity
  8
SU
100
AcDbLine
 10
211.0
 20
243.25
 30
0.0
 11
213.5
 21
243.25
 31
0.0
  0
LINE
  5
1FC
330
1E
100
AcDbEntity
  8
SU
100
AcDbLine
 10
213.5
 20
243.25
 30
0.0
 11
233.073333
 21
243.25
 31
0.0
  0
LINE
  5
1FD
330
1E
100
AcDbEntity
  8
SU
100
AcDbLine
 10
170.0
 20
211.9923
 30
0.0
 11
170.0
 21
246.2499999999999
 31
0.0
  0
LINE
  5
1FE
330
1E
100
AcDbEntity
  8
SU
100
AcDbLine
 10
211.0
 20
211.992295
 30
0.0
 11
211.0
 21
246.2499999999999
 31
0.0
  0
LINE
  5
1FF
330
1E
100
AcDbEntity
  8
SU
100
AcDbLine
 10
170.0
 20
243.25
 30
0.0
 11
211.0
 21
243.25
 31
0.0
  0
LINE
  5
200
330
1E
100
AcDbEntity
  8
SU
100
AcDbLine
 10
213.5
 20
209.25
 30
0.0
 11
213.5
 21
175.2499999999999
 31
0.0
  0
LINE
  5
201
330
1E
100
AcDbEntity
  8
SU
100
AcDbLine
 10
203.0
 20
178.2499999999999
 30
0.0
 11
213.5
 21
178.2499999999999
 31
0.0
  0
LINE
  5
202
330
1E
100
AcDbEntity
  8
SU
100
AcDbLine
 10
213.5
 20
178.2499999999999
 30
0.0
 11
237.776667
 21
178.2499999999999
 31
0.0
  0
LINE
  5
203
330
1E
100
AcDbEntity
  8
SU
100
AcDbLine
 10
178.0
 20
197.25
 30
0.0
 11
178.0
 21
175.2499999999999
 31
0.0
  0
LINE
  5
204
330
1E
100
AcDbEntity
  8
SU
100
AcDbLine
 10
203.0
 20
197.25
 30
0.0
 11
203.0
 21
175.2499999999999
 31
0.0
  0
LINE
  5
205
330
1E
100
AcDbEntity
  8
SU
100
AcDbLine
 10
178.0
 20
178.2499999999999
 30
0.0
 11
203.0
 21
178.2499999999999
 31
0.0
  0
LINE
  5
206
330
1E
100
AcDbEntity
  8
SU
100
AcDbLine
 10
268.5
 20
210.25
 30
0.0
 11
268.5
 21
199.826104
 31
0.0
  0
LINE
  5
207
330
1E
100
AcDbEntity
  8
SU
100
AcDbLine
 10
268.5
 20
212.25
 30
0.0
 11
268.5
 21
210.25
 31
0.0
  0
LINE
  5
208
330
1E
100
AcDbEntity
  8
SU
100
AcDbLine
 10
207.9999679999999
 20
212.25
 30
0.0
 11
271.4999999999999
 21
212.25
 31
0.0
  0
LINE
  5
209
330
1E
100
AcDbEntity
  8
SU
100
AcDbLine
 10
268.5
 20
220.25
 30
0.0
 11
268.5
 21
212.25
 31
0.0
  0
LINE
  5
20A
330
1E
100
AcDbEntity
  8
SU
100
AcDbLine
 10
268.5
 20
416.2499999999999
 30
0.0
 11
268.5
 21
440.2499999999999
 31
0.0
  0
LINE
  5
20B
330
1E
100
AcDbEntity
  8
SU
100
AcDbLine
 10
210.4999999999999
 20
416.2499999999999
 30
0.0
 11
271.4999999999999
 21
416.2499999999999
 31
0.0
  0
LINE
  5
20C
330
1E
100
AcDbEntity
  8
SU
100
AcDbLine
 10
268.5
 20
413.25
 30
0.0
 11
268.5
 21
416.2499999999999
 31
0.0
  0
LINE
  5
20D
330
1E
100
AcDbEntity
  8
SU
100
AcDbLine
 10
268.5
 20
414.7499999999999
 30
0.0
 11
253.5
 21
422.110254
 31
0.0
  0
LINE
  5
20E
330
1E
100
AcDbEntity
  8
SU
100
AcDbLine
 10
253.5
 20
422.110254
 30
0.0
 11
253.5
 21
428.583587
 31
0.0
  0
LINE
  5
20F
330
1E
100
AcDbEntity
  8
SU
100
AcDbLine
 10
207.0
 20
220.25
 30
0.0
 11
271.4999999999999
 21
220.25
 31
0.0
  0
LINE
  5
210
330
1E
100
AcDbEntity
  8
SU
100
AcDbLine
 10
207.0
 20
413.25
 30
0.0
 11
271.4999999999999
 21
413.25
 31
0.0
  0
LINE
  5
211
330
1E
100
AcDbEntity
  8
SU
100
AcDbLine
 10
268.5
 20
220.25
 30
0.0
 11
268.5
 21
413.25
 31
0.0
  0
LINE
  5
212
330
1E
100
AcDbEntity
  8
SU
100
AcDbLine
 10
289.499996
 20
430.25
 30
0.0
 11
277.4999999999999
 21
430.25
 31
0.0
  0
LINE
  5
213
330
1E
100
AcDbEntity
  8
SU
100
AcDbLine
 10
289.3799959999999
 20
430.4499999999999
 30
0.0
 11
277.62
 21
430.4499999999999
 31
0.0
  0
LINE
  5
214
330
1E
100
AcDbEntity
  8
SU
100
AcDbLine
 10
289.259996
 20
430.6499999999999
 30
0.0
 11
277.74
 21
430.6499999999999
 31
0.0
  0
LINE
  5
215
330
1E
100
AcDbEntity
  8
SU
100
AcDbLine
 10
289.139997
 20
430.849999
 30
0.0
 11
277.86
 21
430.849999
 31
0.0
  0
LINE
  5
216
330
1E
100
AcDbEntity
  8
SU
100
AcDbLine
 10
289.019997
 20
431.049999
 30
0.0
 11
277.98
 21
431.049999
 31
0.0
  0
LINE
  5
217
330
1E
100
AcDbEntity
  8
SU
100
AcDbLine
 10
288.899997
 20
431.249999
 30
0.0
 11
278.099999
 21
431.249999
 31
0.0
  0
LINE
  5
218
330
1E
100
AcDbEntity
  8
SU
100
AcDbLine
 10
288.779997
 20
431.449999
 30
0.0
 11
278.219999
 21
431.449999
 31
0.0
  0
LINE
  5
219
330
1E
100
AcDbEntity
  8
SU
100
AcDbLine
 10
288.6599979999999
 20
431.649999
 30
0.0
 11
278.339999
 21
431.649999
 31
0.0
  0
LINE
  5
21A
330
1E
100
AcDbEntity
  8
SU
100
AcDbLine
 10
288.539998
 20
431.849998
 30
0.0
 11
278.459999
 21
431.849998
 31
0.0
  0
LINE
  5
21B
330
1E
100
AcDbEntity
  8
SU
100
AcDbLine
 10
288.419998
 20
432.049998
 30
0.0
 11
278.579999
 21
432.049998
 31
0.0
  0
LINE
  5
21C
330
1E
100
AcDbEntity
  8
SU
100
AcDbLine
 10
288.299998
 20
432.249998
 30
0.0
 11
278.699999
 21
432.249998
 31
0.0
  0
LINE
  5
21D
330
1E
100
AcDbEntity
  8
SU
100
AcDbLine
 10
288.179998
 20
432.449998
 30
0.0
 11
278.8199989999999
 21
432.449998
 31
0.0
  0
LINE
  5
21E
330
1E
100
AcDbEntity
  8
SU
100
AcDbLine
 10
288.0599989999999
 20
432.649998
 30
0.0
 11
278.939999
 21
432.649998
 31
0.0
  0
LINE
  5
21F
330
1E
100
AcDbEntity
  8
SU
100
AcDbLine
 10
287.9399989999999
 20
432.849997
 30
0.0
 11
279.059999
 21
432.849997
 31
0.0
  0
LINE
  5
220
330
1E
100
AcDbEntity
  8
SU
100
AcDbLine
 10
287.699999
 20
433.2499969999999
 30
0.0
 11
279.299998
 21
433.2499969999999
 31
0.0
  0
LINE
  5
221
330
1E
100
AcDbEntity
  8
SU
100
AcDbLine
 10
287.819999
 20
433.0499969999999
 30
0.0
 11
279.1799979999999
 21
433.0499969999999
 31
0.0
  0
LINE
  5
222
330
1E
100
AcDbEntity
  8
SU
100
AcDbLine
 10
286.98
 20
434.449996
 30
0.0
 11
280.019998
 21
434.449996
 31
0.0
  0
LINE
  5
223
330
1E
100
AcDbEntity
  8
SU
100
AcDbLine
 10
286.8600009999999
 20
434.649996
 30
0.0
 11
280.1399979999999
 21
434.649996
 31
0.0
  0
LINE
  5
224
330
1E
100
AcDbEntity
  8
SU
100
AcDbLine
 10
286.7400009999999
 20
434.8499959999999
 30
0.0
 11
280.259997
 21
434.8499959999999
 31
0.0
  0
LINE
  5
225
330
1E
100
AcDbEntity
  8
SU
100
AcDbLine
 10
286.620001
 20
435.049995
 30
0.0
 11
280.379997
 21
435.049995
 31
0.0
  0
LINE
  5
226
330
1E
100
AcDbEntity
  8
SU
100
AcDbLine
 10
286.500001
 20
435.249995
 30
0.0
 11
280.499997
 21
435.249995
 31
0.0
  0
LINE
  5
227
330
1E
100
AcDbEntity
  8
SU
100
AcDbLine
 10
286.3800009999999
 20
435.449995
 30
0.0
 11
280.619997
 21
435.449995
 31
0.0
  0
LINE
  5
228
330
1E
100
AcDbEntity
  8
SU
100
AcDbLine
 10
286.2600009999999
 20
435.649995
 30
0.0
 11
280.739997
 21
435.649995
 31
0.0
  0
LINE
  5
229
330
1E
100
AcDbEntity
  8
SU
100
AcDbLine
 10
286.140001
 20
435.849995
 30
0.0
 11
280.859997
 21
435.849995
 31
0.0
  0
LINE
  5
22A
330
1E
100
AcDbEntity
  8
SU
100
AcDbLine
 10
286.0200009999999
 20
436.049994
 30
0.0
 11
280.979997
 21
436.049994
 31
0.0
  0
LINE
  5
22B
330
1E
100
AcDbEntity
  8
SU
100
AcDbLine
 10
285.9000009999999
 20
436.249994
 30
0.0
 11
281.099997
 21
436.249994
 31
0.0
  0
LINE
  5
22C
330
1E
100
AcDbEntity
  8
SU
100
AcDbLine
 10
285.780002
 20
436.449994
 30
0.0
 11
281.219996
 21
436.449994
 31
0.0
  0
LINE
  5
22D
330
1E
100
AcDbEntity
  8
SU
100
AcDbLine
 10
285.6600029999999
 20
436.649994
 30
0.0
 11
281.3399959999999
 21
436.649994
 31
0.0
  0
LINE
  5
22E
330
1E
100
AcDbEntity
  8
SU
100
AcDbLine
 10
285.5400029999999
 20
436.849994
 30
0.0
 11
281.4599959999999
 21
436.849994
 31
0.0
  0
LINE
  5
22F
330
1E
100
AcDbEntity
  8
SU
100
AcDbLine
 10
285.4200029999999
 20
437.049993
 30
0.0
 11
281.579996
 21
437.049993
 31
0.0
  0
LINE
  5
230
330
1E
100
AcDbEntity
  8
SU
100
AcDbLine
 10
285.300003
 20
437.249993
 30
0.0
 11
281.699996
 21
437.249993
 31
0.0
  0
LINE
  5
231
330
1E
100
AcDbEntity
  8
SU
100
AcDbLine
 10
285.180003
 20
437.4499929999999
 30
0.0
 11
281.819996
 21
437.4499929999999
 31
0.0
  0
LINE
  5
232
330
1E
100
AcDbEntity
  8
SU
100
AcDbLine
 10
285.0600029999999
 20
437.649993
 30
0.0
 11
281.939996
 21
437.649993
 31
0.0
  0
LINE
  5
233
330
1E
100
AcDbEntity
  8
SU
100
AcDbLine
 10
284.9400029999999
 20
437.849993
 30
0.0
 11
282.059996
 21
437.849993
 31
0.0
  0
LINE
  5
234
330
1E
100
AcDbEntity
  8
SU
100
AcDbLine
 10
284.7000039999999
 20
438.2499919999999
 30
0.0
 11
282.299995
 21
438.2499919999999
 31
0.0
  0
LINE
  5
235
330
1E
100
AcDbEntity
  8
SU
100
AcDbLine
 10
284.820003
 20
438.049993
 30
0.0
 11
282.179996
 21
438.049993
 31
0.0
  0
LINE
  5
236
330
1E
100
AcDbEntity
  8
SU
100
AcDbLine
 10
284.580004
 20
438.449992
 30
0.0
 11
282.419995
 21
438.449992
 31
0.0
  0
LINE
  5
237
330
1E
100
AcDbEntity
  8
SU
100
AcDbLine
 10
284.460004
 20
438.649992
 30
0.0
 11
282.539995
 21
438.649992
 31
0.0
  0
LINE
  5
238
330
1E
100
AcDbEntity
  8
SU
100
AcDbLine
 10
284.340004
 20
438.849992
 30
0.0
 11
282.659995
 21
438.849992
 31
0.0
  0
LINE
  5
239
330
1E
100
AcDbEntity
  8
SU
100
AcDbLine
 10
284.2200049999999
 20
439.0499919999999
 30
0.0
 11
282.779995
 21
439.0499919999999
 31
0.0
  0
LINE
  5
23A
330
1E
100
AcDbEntity
  8
SU
100
AcDbLine
 10
284.1000049999999
 20
439.249991
 30
0.0
 11
282.899995
 21
439.249991
 31
0.0
  0
LINE
  5
23B
330
1E
100
AcDbEntity
  8
SU
100
AcDbLine
 10
283.860003
 20
439.649991
 30
0.0
 11
283.139995
 21
439.649991
 31
0.0
  0
LINE
  5
23C
330
1E
100
AcDbEntity
  8
SU
100
AcDbLine
 10
283.980005
 20
439.449991
 30
0.0
 11
283.0199949999999
 21
439.449991
 31
0.0
  0
LINE
  5
23D
330
1E
100
AcDbEntity
  8
SU
100
AcDbLine
 10
283.7400029999999
 20
439.8499909999999
 30
0.0
 11
283.259995
 21
439.8499909999999
 31
0.0
  0
LINE
  5
23E
330
1E
100
AcDbEntity
  8
SU
100
AcDbLine
 10
283.5000019999999
 20
440.2500039999999
 30
0.0
 11
277.4999999999999
 21
430.25
 31
0.0
  0
LINE
  5
23F
330
1E
100
AcDbEntity
  8
SU
100
AcDbLine
 10
283.6200079999999
 20
440.0499879999999
 30
0.0
 11
283.379992
 21
440.0499879999999
 31
0.0
  0
LINE
  5
240
330
1E
100
AcDbEntity
  8
SU
100
AcDbLine
 10
283.4999999999999
 20
440.2499999999999
 30
0.0
 11
289.499996
 21
430.25
 31
0.0
  0
LINE
  5
241
330
1E
100
AcDbEntity
  8
SU
100
AcDbLine
 10
287.1
 20
434.249996
 30
0.0
 11
279.899998
 21
434.249996
 31
0.0
  0
LINE
  5
242
330
1E
100
AcDbEntity
  8
SU
100
AcDbLine
 10
287.22
 20
434.049996
 30
0.0
 11
279.7799979999999
 21
434.049996
 31
0.0
  0
LINE
  5
243
330
1E
100
AcDbEntity
  8
SU
100
AcDbLine
 10
287.339999
 20
433.8499969999999
 30
0.0
 11
279.6599979999999
 21
433.8499969999999
 31
0.0
  0
LINE
  5
244
330
1E
100
AcDbEntity
  8
SU
100
AcDbLine
 10
287.459999
 20
433.649997
 30
0.0
 11
279.539998
 21
433.649997
 31
0.0
  0
LINE
  5
245
330
1E
100
AcDbEntity
  8
SU
100
AcDbLine
 10
287.579999
 20
433.449997
 30
0.0
 11
279.419998
 21
433.449997
 31
0.0
  0
LINE
  5
246
330
1E
100
AcDbEntity
  8
SU
100
AcDbLine
 10
214.5
 20
440.2499999999999
 30
0.0
 11
286.5
 21
440.2499999999999
 31
0.0
  0
LINE
  5
247
330
1E
100
AcDbEntity
  8
SU
100
AcDbLine
 10
234.5
 20
210.25
 30
0.0
 11
286.5
 21
210.25
 31
0.0
  0
LINE
  5
248
330
1E
100
AcDbEntity
  8
SU
100
AcDbLine
 10
283.4999999999999
 20
440.2499999999999
 30
0.0
 11
283.4999999999999
 21
210.25
 31
0.0
  0
LINE
  5
249
330
1E
100
AcDbEntity
  8
SU
100
AcDbLine
 10
151.0
 20
404.25
 30
0.0
 11
77.5
 21
404.25
 31
0.0
  0
LINE
  5
24A
330
1E
100
AcDbEntity
  8
SU
100
AcDbLine
 10
80.5
 20
416.2499999999999
 30
0.0
 11
80.5
 21
404.25
 31
0.0
  0
LINE
  5
24B
330
1E
100
AcDbEntity
  8
SU
100
AcDbLine
 10
80.5
 20
404.25
 30
0.0
 11
80.5
 21
389.697233
 31
0.0
  0
LINE
  5
24C
330
1E
100
AcDbEntity
  8
SU
100
AcDbLine
 10
99.50000000000001
 20
440.2499999999999
 30
0.0
 11
77.5
 21
440.2499999999999
 31
0.0
  0
LINE
  5
24D
330
1E
100
AcDbEntity
  8
SU
100
AcDbLine
 10
103.4999999999999
 20
416.2499999999999
 30
0.0
 11
77.5
 21
416.2499999999999
 31
0.0
  0
LINE
  5
24E
330
1E
100
AcDbEntity
  8
SU
100
AcDbLine
 10
80.5
 20
440.2499999999999
 30
0.0
 11
80.5
 21
416.2499999999999
 31
0.0
  0
LINE
  5
24F
330
1E
100
AcDbEntity
  8
KI1
100
AcDbLine
 10
208.292152
 20
61.59964999999999
 30
0.0
 11
203.5
 21
65.04999999999999
 31
0.0
  0
LINE
  5
250
330
1E
100
AcDbEntity
  8
KI1
100
AcDbLine
 10
207.5573879999999
 20
60.65
 30
0.0
 11
202.8351659999999
 21
64.05
 31
0.0
  0
LINE
  5
251
330
1E
100
AcDbEntity
  8
KI1
100
AcDbLine
 10
200.4999999999999
 20
64.05
 30
0.0
 11
178.5
 21
64.05
 31
0.0
  0
LINE
  5
252
330
1E
100
AcDbEntity
  8
KI1
100
AcDbLine
 10
203.5
 20
65.04999999999999
 30
0.0
 11
175.5
 21
65.04999999999999
 31
0.0
  0
ARC
  5
253
330
1E
100
AcDbEntity
  8
KI1
100
AcDbCircle
 10
171.0
 20
61.19388299999999
 30
0.0
 40
0.5
100
AcDbArc
 50
125.753887
 51
180.0
1001
GENIUS_GENOBJ-N-FIL_13
1002
{
1000
OWNER
1000
GEN
1002
}
1001
GENIUS_GENODEF_13
1002
{
1000
HIER
1070
     0
1002
}
1002
{
1000
MANEDIT
1070
     0
1002
}
1002
{
1000
NOSEL
1070
     0
1002
}
1002
{
1000
BEHIND
1070
     0
1002
}
1002
{
1000
OTHER
1070
     0
1002
}
1002
{
1000
REACTOR
1002
}
  0
LINE
  5
254
330
1E
100
AcDbEntity
  8
KI1
100
AcDbLine
 10
171.442612
 20
60.65
 30
0.0
 11
176.164834
 21
64.05
 31
0.0
  0
LINE
  5
255
330
1E
100
AcDbEntity
  8
KI1
100
AcDbLine
 10
170.5
 20
60.65
 30
0.0
 11
171.442612
 21
60.65
 31
0.0
  0
LINE
  5
256
330
1E
100
AcDbEntity
  8
KI1
100
AcDbLine
 10
170.5
 20
60.65
 30
0.0
 11
170.5
 21
61.19388299999999
 31
0.0
  0
LINE
  5
257
330
1E
100
AcDbEntity
  8
KI1
100
AcDbLine
 10
170.7078479999999
 20
61.59964999999999
 30
0.0
 11
175.5
 21
65.04999999999999
 31
0.0
  0
LINE
  5
258
330
1E
100
AcDbEntity
  8
KI1
100
AcDbLine
 10
177.5999999999999
 20
64.05
 30
0.0
 11
176.164834
 21
64.05
 31
0.0
  0
LINE
  5
259
330
1E
100
AcDbEntity
  8
KI1
100
AcDbLine
 10
177.5999999999999
 20
63.55
 30
0.0
 11
177.2967439999999
 21
63.270651
 31
0.0
  0
LINE
  5
25A
330
1E
100
AcDbEntity
  8
KI1
100
AcDbLine
 10
177.2304639999999
 20
62.91827900000001
 30
0.0
 11
177.7406189999999
 21
61.874371
 31
0.0
  0
ARC
  5
25B
330
1E
100
AcDbEntity
  8
KI1
100
AcDbCircle
 10
177.5
 20
63.04999999999999
 30
0.0
 40
0.3
100
AcDbArc
 50
132.6501739999999
 51
206.044643
  0
ARC
  5
25C
330
1E
100
AcDbEntity
  8
KI1
100
AcDbCircle
 10
178.0999999999999
 20
62.05
 30
0.0
 40
0.4
100
AcDbArc
 50
206.044643
 51
0.0
  0
LINE
  5
25D
330
1E
100
AcDbEntity
  8
KI1
100
AcDbLine
 10
178.5
 20
64.05
 30
0.0
 11
178.5
 21
62.05
 31
0.0
  0
LINE
  5
25E
330
1E
100
AcDbEntity
  8
KI1
100
AcDbLine
 10
177.5999999999999
 20
64.05
 30
0.0
 11
177.5999999999999
 21
63.55
 31
0.0
  0
ARC
  5
25F
330
1E
100
AcDbEntity
  8
KI1
100
AcDbCircle
 10
201.5
 20
63.04999999999999
 30
0.0
 40
0.3
100
AcDbArc
 50
333.955357
 51
47.349826
  0
LINE
  5
260
330
1E
100
AcDbEntity
  8
KI1
100
AcDbLine
 10
202.8351659999999
 20
64.05
 30
0.0
 11
201.4
 21
64.05
 31
0.0
  0
LINE
  5
261
330
1E
100
AcDbEntity
  8
KI1
100
AcDbLine
 10
201.769536
 20
62.91827900000001
 30
0.0
 11
201.259381
 21
61.874371
 31
0.0
  0
LINE
  5
262
330
1E
100
AcDbEntity
  8
KI1
100
AcDbLine
 10
201.4
 20
64.05
 30
0.0
 11
201.4
 21
63.55
 31
0.0
  0
LINE
  5
263
330
1E
100
AcDbEntity
  8
KI1
100
AcDbLine
 10
201.4
 20
63.55
 30
0.0
 11
201.703256
 21
63.270651
 31
0.0
  0
LINE
  5
264
330
1E
100
AcDbEntity
  8
KI1
100
AcDbLine
 10
200.4999999999999
 20
64.05
 30
0.0
 11
200.4999999999999
 21
62.05
 31
0.0
  0
ARC
  5
265
330
1E
100
AcDbEntity
  8
KI1
100
AcDbCircle
 10
200.8999999999999
 20
62.05
 30
0.0
 40
0.4
100
AcDbArc
 50
180.0
 51
333.955357
  0
ARC
  5
266
330
1E
100
AcDbEntity
  8
KI1
100
AcDbCircle
 10
208.0
 20
61.19388299999999
 30
0.0
 40
0.5
100
AcDbArc
 50
0.0
 51
54.24611299999999
1001
GENIUS_GENOBJ-N-FIL_13
1002
{
1000
OWNER
1000
GEN
1002
}
1001
GENIUS_GENODEF_13
1002
{
1000
HIER
1070
     0
1002
}
1002
{
1000
MANEDIT
1070
     0
1002
}
1002
{
1000
NOSEL
1070
     0
1002
}
1002
{
1000
BEHIND
1070
     0
1002
}
1002
{
1000
OTHER
1070
     0
1002
}
1002
{
1000
REACTOR
1002
}
  0
LINE
  5
267
330
1E
100
AcDbEntity
  8
KI1
100
AcDbLine
 10
208.4999999999999
 20
60.65
 30
0.0
 11
208.4999999999999
 21
61.19388299999999
 31
0.0
  0
LINE
  5
268
330
1E
100
AcDbEntity
  8
KI1
100
AcDbLine
 10
208.4999999999999
 20
60.65
 30
0.0
 11
207.5573879999999
 21
60.65
 31
0.0
  0
LINE
  5
269
330
1E
100
AcDbEntity
  8
KI1
100
AcDbLine
 10
183.041742
 20
61.45
 30
0.0
 11
177.0999999999999
 21
61.45
 31
0.0
  0
LINE
  5
26A
330
1E
100
AcDbEntity
  8
KI1
100
AcDbLine
 10
176.4
 20
60.25
 30
0.0
 11
202.5999999999999
 21
60.25
 31
0.0
  0
LINE
  5
26B
330
1E
100
AcDbEntity
  8
KI1
100
AcDbLine
 10
177.2
 20
63.85
 30
0.0
 11
176.9
 21
63.85
 31
0.0
  0
ARC
  5
26C
330
1E
100
AcDbEntity
  8
KI1
100
AcDbCircle
 10
176.4
 20
60.75
 30
0.0
 40
0.5
100
AcDbArc
 50
180.0
 51
270.0
1001
GENIUS_GENOBJ-N-FIL_13
1002
{
1000
OWNER
1000
GEN
1002
}
1001
GENIUS_GENODEF_13
1002
{
1000
HIER
1070
     0
1002
}
1002
{
1000
MANEDIT
1070
     0
1002
}
1002
{
1000
NOSEL
1070
     0
1002
}
1002
{
1000
BEHIND
1070
     0
1002
}
1002
{
1000
OTHER
1070
     0
1002
}
1002
{
1000
REACTOR
1002
}
  0
LINE
  5
26D
330
1E
100
AcDbEntity
  8
KI1
100
AcDbLine
 10
176.8
 20
61.75
 30
0.0
 11
176.8
 21
62.608343
 31
0.0
  0
LINE
  5
26E
330
1E
100
AcDbEntity
  8
KI1
100
AcDbLine
 10
175.9
 20
62.85
 30
0.0
 11
175.9
 21
60.75
 31
0.0
  0
ARC
  5
26F
330
1E
100
AcDbEntity
  8
KI1
100
AcDbCircle
 10
177.0999999999999
 20
61.75
 30
0.0
 40
0.3
100
AcDbArc
 50
180.0
 51
270.0
1001
GENIUS_GENOBJ-N-FIL_13
1002
{
1000
OWNER
1000
GEN
1002
}
1001
GENIUS_GENODEF_13
1002
{
1000
HIER
1070
     0
1002
}
1002
{
1000
MANEDIT
1070
     0
1002
}
1002
{
1000
NOSEL
1070
     0
1002
}
1002
{
1000
BEHIND
1070
     0
1002
}
1002
{
1000
OTHER
1070
     0
1002
}
1002
{
1000
REACTOR
1002
}
  0
LINE
  5
270
330
1E
100
AcDbEntity
  8
KI1
100
AcDbLine
 10
176.98936
 20
63.000137
 30
0.0
 11
177.386384
 21
63.314923
 31
0.0
  0
ARC
  5
271
330
1E
100
AcDbEntity
  8
KI1
100
AcDbCircle
 10
177.3
 20
62.608343
 30
0.0
 40
0.5
100
AcDbArc
 50
128.409671
 51
180.0
1001
GENIUS_GENODEF_13
1002
{
1000
HIER
1070
     0
1002
}
1002
{
1000
MANEDIT
1070
     0
1002
}
1002
{
1000
NOSEL
1070
     0
1002
}
1002
{
1000
BEHIND
1070
     0
1002
}
1002
{
1000
OTHER
1070
     0
1002
}
1002
{
1000
REACTOR
1002
}
1001
GENIUS_GENOBJ-N-FIL_13
1002
{
1000
OWNER
1000
GEN
1002
}
  0
ARC
  5
272
330
1E
100
AcDbEntity
  8
KI1
100
AcDbCircle
 10
177.2
 20
63.55
 30
0.0
 40
0.3
100
AcDbArc
 50
308.409671
 51
90.0
  0
ARC
  5
273
330
1E
100
AcDbEntity
  8
KI1
100
AcDbCircle
 10
176.9
 20
62.85
 30
0.0
 40
1.0
100
AcDbArc
 50
90.0
 51
180.0
1001
GENIUS_GENOBJ-N-FIL_13
1002
{
1000
OWNER
1000
GEN
1002
}
1001
GENIUS_GENODEF_13
1002
{
1000
HIER
1070
     0
1002
}
1002
{
1000
MANEDIT
1070
     0
1002
}
1002
{
1000
NOSEL
1070
     0
1002
}
1002
{
1000
BEHIND
1070
     0
1002
}
1002
{
1000
OTHER
1070
     0
1002
}
1002
{
1000
REACTOR
1002
}
  0
ARC
  5
274
330
1E
100
AcDbEntity
  8
KI1
100
AcDbCircle
 10
201.8
 20
63.55
 30
0.0
 40
0.3
100
AcDbArc
 50
90.0
 51
231.590329
  0
LINE
  5
275
330
1E
100
AcDbEntity
  8
KI1
100
AcDbLine
 10
201.9
 20
61.45
 30
0.0
 11
195.958258
 21
61.45
 31
0.0
  0
ARC
  5
276
330
1E
100
AcDbEntity
  8
KI1
100
AcDbCircle
 10
189.4999999999999
 20
61.65
 30
0.0
 40
0.5
100
AcDbArc
 50
203.578178
 51
336.421822
  0
LINE
  5
277
330
1E
100
AcDbEntity
  8
KI1
100
AcDbLine
 10
189.041742
 20
61.45
 30
0.0
 11
183.958258
 21
61.45
 31
0.0
  0
ARC
  5
278
330
1E
100
AcDbEntity
  8
KI1
100
AcDbCircle
 10
183.4999999999999
 20
61.65
 30
0.0
 40
0.5
100
AcDbArc
 50
203.578178
 51
336.421822
  0
ARC
  5
279
330
1E
100
AcDbEntity
  8
KI1
100
AcDbCircle
 10
195.5
 20
61.65
 30
0.0
 40
0.5
100
AcDbArc
 50
203.578178
 51
336.421822
  0
LINE
  5
27A
330
1E
100
AcDbEntity
  8
KI1
100
AcDbLine
 10
195.0417419999999
 20
61.45
 30
0.0
 11
189.958258
 21
61.45
 31
0.0
  0
LINE
  5
27B
330
1E
100
AcDbEntity
  8
KI1
100
AcDbLine
 10
201.8
 20
63.85
 30
0.0
 11
202.0999999999999
 21
63.85
 31
0.0
  0
ARC
  5
27C
330
1E
100
AcDbEntity
  8
KI1
100
AcDbCircle
 10
202.5999999999999
 20
60.75
 30
0.0
 40
0.5
100
AcDbArc
 50
270.0
 51
0.0
1001
GENIUS_GENOBJ-N-FIL_13
1002
{
1000
OWNER
1000
GEN
1002
}
1001
GENIUS_GENODEF_13
1002
{
1000
HIER
1070
     0
1002
}
1002
{
1000
MANEDIT
1070
     0
1002
}
1002
{
1000
NOSEL
1070
     0
1002
}
1002
{
1000
BEHIND
1070
     0
1002
}
1002
{
1000
OTHER
1070
     0
1002
}
1002
{
1000
REACTOR
1002
}
  0
LINE
  5
27D
330
1E
100
AcDbEntity
  8
KI1
100
AcDbLine
 10
202.1999999999999
 20
61.75
 30
0.0
 11
202.1999999999999
 21
62.608343
 31
0.0
  0
LINE
  5
27E
330
1E
100
AcDbEntity
  8
KI1
100
AcDbLine
 10
203.1
 20
62.85
 30
0.0
 11
203.1
 21
60.75
 31
0.0
  0
ARC
  5
27F
330
1E
100
AcDbEntity
  8
KI1
100
AcDbCircle
 10
201.9
 20
61.75
 30
0.0
 40
0.3
100
AcDbArc
 50
270.0
 51
0.0
1001
GENIUS_GENOBJ-N-FIL_13
1002
{
1000
OWNER
1000
GEN
1002
}
1001
GENIUS_GENODEF_13
1002
{
1000
HIER
1070
     0
1002
}
1002
{
1000
MANEDIT
1070
     0
1002
}
1002
{
1000
NOSEL
1070
     0
1002
}
1002
{
1000
BEHIND
1070
     0
1002
}
1002
{
1000
OTHER
1070
     0
1002
}
1002
{
1000
REACTOR
1002
}
  0
ARC
  5
280
330
1E
100
AcDbEntity
  8
KI1
100
AcDbCircle
 10
201.6999999999999
 20
62.608343
 30
0.0
 40
0.5
100
AcDbArc
 50
0.0
 51
51.59032899999999
1001
GENIUS_GENODEF_13
1002
{
1000
HIER
1070
     0
1002
}
1002
{
1000
MANEDIT
1070
     0
1002
}
1002
{
1000
NOSEL
1070
     0
1002
}
1002
{
1000
BEHIND
1070
     0
1002
}
1002
{
1000
OTHER
1070
     0
1002
}
1002
{
1000
REACTOR
1002
}
1001
GENIUS_GENOBJ-N-FIL_13
1002
{
1000
OWNER
1000
GEN
1002
}
  0
LINE
  5
281
330
1E
100
AcDbEntity
  8
KI1
100
AcDbLine
 10
202.0106399999999
 20
63.000137
 30
0.0
 11
201.6136159999999
 21
63.314923
 31
0.0
  0
ARC
  5
282
330
1E
100
AcDbEntity
  8
KI1
100
AcDbCircle
 10
202.0999999999999
 20
62.85
 30
0.0
 40
1.0
100
AcDbArc
 50
0.0
 51
90.0
1001
GENIUS_GENOBJ-N-FIL_13
1002
{
1000
OWNER
1000
GEN
1002
}
1001
GENIUS_GENODEF_13
1002
{
1000
HIER
1070
     0
1002
}
1002
{
1000
MANEDIT
1070
     0
1002
}
1002
{
1000
NOSEL
1070
     0
1002
}
1002
{
1000
BEHIND
1070
     0
1002
}
1002
{
1000
OTHER
1070
     0
1002
}
1002
{
1000
REACTOR
1002
}
  0
LINE
  5
283
330
1E
100
AcDbEntity
  8
KI1
100
AcDbLine
 10
194.6999999999999
 20
210.349998
 30
0.0
 11
186.3
 21
210.349998
 31
0.0
  0
LINE
  5
284
330
1E
100
AcDbEntity
  8
KI1
100
AcDbLine
 10
200.0999999999999
 20
211.6499979999999
 30
0.0
 11
180.9
 21
211.6499979999999
 31
0.0
  0
ARC
  5
285
330
1E
100
AcDbEntity
  8
KI1
100
AcDbCircle
 10
186.207375
 20
205.349998
 30
0.0
 40
0.4
100
AcDbArc
 50
195.000006
 51
15.0
  0
LINE
  5
286
330
1E
100
AcDbEntity
  8
KI1
100
AcDbLine
 10
181.6999999999999
 20
210.349998
 30
0.0
 11
180.757308
 21
211.3098589999999
 31
0.0
  0
ARC
  5
287
330
1E
100
AcDbEntity
  8
KI1
100
AcDbCircle
 10
180.9
 20
211.449998
 30
0.0
 40
0.2
100
AcDbArc
 50
90.0
 51
224.4829719999999
  0
LINE
  5
288
330
1E
100
AcDbEntity
  8
KI1
100
AcDbLine
 10
185.5
 20
210.349998
 30
0.0
 11
181.6999999999999
 21
210.349998
 31
0.0
  0
ARC
  5
289
330
1E
100
AcDbEntity
  8
KI1
100
AcDbCircle
 10
185.5
 20
207.603588
 30
0.0
 40
0.3
100
AcDbArc
 50
120.0000029999999
 51
195.000002
  0
LINE
  5
28A
330
1E
100
AcDbEntity
  8
KI1
100
AcDbLine
 10
186.3
 20
206.5497989999999
 30
0.0
 11
186.5937449999999
 21
205.453526
 31
0.0
  0
LINE
  5
28B
330
1E
100
AcDbEntity
  8
KI1
100
AcDbLine
 10
185.821005
 20
205.2464709999999
 30
0.0
 11
185.2102219999999
 21
207.525943
 31
0.0
  0
LINE
  5
28C
330
1E
100
AcDbEntity
  8
KI1
100
AcDbLine
 10
186.3
 20
206.5497989999999
 30
0.0
 11
186.3
 21
210.349998
 31
0.0
  0
LINE
  5
28D
330
1E
100
AcDbEntity
  8
KI1
100
AcDbLine
 10
185.35
 20
207.8633959999999
 30
0.0
 11
185.5
 21
207.949998
 31
0.0
  0
LINE
  5
28E
330
1E
100
AcDbEntity
  8
KI1
100
AcDbLine
 10
185.5
 20
210.349998
 30
0.0
 11
185.5
 21
207.949998
 31
0.0
  0
ARC
  5
28F
330
1E
100
AcDbEntity
  8
KI1
100
AcDbCircle
 10
194.7926249999999
 20
205.349998
 30
0.0
 40
0.4
100
AcDbArc
 50
164.9999939999999
 51
345.0000129999999
  0
LINE
  5
290
330
1E
100
AcDbEntity
  8
KI1
100
AcDbLine
 10
199.3
 20
210.349998
 30
0.0
 11
200.2426919999999
 21
211.3098589999999
 31
0.0
  0
ARC
  5
291
330
1E
100
AcDbEntity
  8
KI1
100
AcDbCircle
 10
200.0999999999999
 20
211.449998
 30
0.0
 40
0.2
100
AcDbArc
 50
315.517028
 51
90.0
  0
LINE
  5
292
330
1E
100
AcDbEntity
  8
KI1
100
AcDbLine
 10
199.3
 20
210.349998
 30
0.0
 11
195.5
 21
210.349998
 31
0.0
  0
ARC
  5
293
330
1E
100
AcDbEntity
  8
KI1
100
AcDbCircle
 10
195.5
 20
207.603588
 30
0.0
 40
0.3
100
AcDbArc
 50
345.0
 51
60.000002
  0
LINE
  5
294
330
1E
100
AcDbEntity
  8
KI1
100
AcDbLine
 10
194.406255
 20
205.453526
 30
0.0
 11
194.6999999999999
 21
206.5497989999999
 31
0.0
  0
LINE
  5
295
330
1E
100
AcDbEntity
  8
KI1
100
AcDbLine
 10
195.789778
 20
207.525943
 30
0.0
 11
195.178995
 21
205.2464709999999
 31
0.0
  0
LINE
  5
296
330
1E
100
AcDbEntity
  8
KI1
100
AcDbLine
 10
194.6999999999999
 20
210.349998
 30
0.0
 11
194.6999999999999
 21
206.5497989999999
 31
0.0
  0
LINE
  5
297
330
1E
100
AcDbEntity
  8
KI1
100
AcDbLine
 10
195.5
 20
207.949998
 30
0.0
 11
195.65
 21
207.8633959999999
 31
0.0
  0
LINE
  5
298
330
1E
100
AcDbEntity
  8
KI1
100
AcDbLine
 10
195.5
 20
207.949998
 30
0.0
 11
195.5
 21
210.349998
 31
0.0
  0
LINE
  5
299
330
1E
100
AcDbEntity
  8
KI1
100
AcDbLine
 10
196.0
 20
200.2499999999999
 30
0.0
 11
196.0
 21
208.349998
 31
0.0
  0
LINE
  5
29A
330
1E
100
AcDbEntity
  8
KI1
100
AcDbLine
 10
197.0
 20
208.7499999999999
 30
0.0
 11
197.0
 21
199.75
 31
0.0
  0
LINE
  5
29B
330
1E
100
AcDbEntity
  8
KI1
100
AcDbLine
 10
185.0
 20
208.349998
 30
0.0
 11
185.0
 21
200.2499999999999
 31
0.0
  0
LINE
  5
29C
330
1E
100
AcDbEntity
  8
KI1
100
AcDbLine
 10
184.0
 20
199.75
 30
0.0
 11
184.0
 21
208.7499999999999
 31
0.0
  0
LINE
  5
29D
330
1E
100
AcDbEntity
  8
KI1
100
AcDbLine
 10
196.0
 20
198.75
 30
0.0
 11
185.0
 21
198.75
 31
0.0
  0
LINE
  5
29E
330
1E
100
AcDbEntity
  8
KI1
100
AcDbLine
 10
190.799999
 20
199.75
 30
0.0
 11
195.5
 21
199.75
 31
0.0
  0
ARC
  5
29F
330
1E
100
AcDbEntity
  8
KI1
100
AcDbCircle
 10
185.0
 20
199.75
 30
0.0
 40
1.0
100
AcDbArc
 50
179.9999909999999
 51
270.000001
  0
ARC
  5
2A0
330
1E
100
AcDbEntity
  8
KI1
100
AcDbCircle
 10
185.5
 20
200.2499999999999
 30
0.0
 40
0.5
100
AcDbArc
 50
179.9999909999999
 51
270.000001
  0
LINE
  5
2A1
330
1E
100
AcDbEntity
  8
KI1
100
AcDbLine
 10
190.500001
 20
199.450002
 30
0.0
 11
190.8
 21
199.7500009999999
 31
0.0
  0
LINE
  5
2A2
330
1E
100
AcDbEntity
  8
KI1
100
AcDbLine
 10
190.200001
 20
199.7500009999999
 30
0.0
 11
190.500001
 21
199.450002
 31
0.0
  0
LINE
  5
2A3
330
1E
100
AcDbEntity
  8
KI1
100
AcDbLine
 10
185.5
 20
199.75
 30
0.0
 11
190.200001
 21
199.75
 31
0.0
  0
ARC
  5
2A4
330
1E
100
AcDbEntity
  8
KI1
100
AcDbCircle
 10
196.0
 20
199.75
 30
0.0
 40
1.0
100
AcDbArc
 50
269.9999969999999
 51
0.0
  0
ARC
  5
2A5
330
1E
100
AcDbEntity
  8
KI1
100
AcDbCircle
 10
195.5
 20
200.2499999999999
 30
0.0
 40
0.5
100
AcDbArc
 50
269.9999969999999
 51
0.0
  0
ARC
  5
2A6
330
1E
100
AcDbEntity
  8
KI1
100
AcDbCircle
 10
180.0
 20
209.7286799999999
 30
0.0
 40
0.2
100
AcDbArc
 50
45.00000099999999
 51
180.000005
  0
LINE
  5
2A7
330
1E
100
AcDbEntity
  8
KI1
100
AcDbLine
 10
181.4999979999999
 20
210.349998
 30
0.0
 11
179.746442
 21
212.1035529999999
 31
0.0
  0
ARC
  5
2A8
330
1E
100
AcDbEntity
  8
KI1
100
AcDbCircle
 10
179.392889
 20
211.75
 30
0.0
 40
0.5
100
AcDbArc
 50
45.000016
 51
90.0
1001
GENIUS_GENOBJ-N-FIL_13
1002
{
1000
OWNER
1000
GEN
1002
}
1001
GENIUS_GENODEF_13
1002
{
1000
HIER
1070
     0
1002
}
1002
{
1000
MANEDIT
1070
     0
1002
}
1002
{
1000
NOSEL
1070
     0
1002
}
1002
{
1000
BEHIND
1070
     0
1002
}
1002
{
1000
OTHER
1070
     0
1002
}
1002
{
1000
REACTOR
1002
}
  0
LINE
  5
2A9
330
1E
100
AcDbEntity
  8
KI1
100
AcDbLine
 10
179.392889
 20
212.25
 30
0.0
 11
174.000013
 21
212.25
 31
0.0
  0
ARC
  5
2AA
330
1E
100
AcDbEntity
  8
KI1
100
AcDbCircle
 10
170.5
 20
210.625379
 30
0.0
 40
0.5
100
AcDbArc
 50
107.4543919999999
 51
180.0
1001
GENIUS_GENODEF_13
1002
{
1000
HIER
1070
     0
1002
}
1002
{
1000
MANEDIT
1070
     0
1002
}
1002
{
1000
NOSEL
1070
     0
1002
}
1002
{
1000
BEHIND
1070
     0
1002
}
1002
{
1000
OTHER
1070
     0
1002
}
1002
{
1000
REACTOR
1002
}
1001
GENIUS_GENOBJ-N-FIL_13
1002
{
1000
OWNER
1000
GEN
1002
}
  0
LINE
  5
2AB
330
1E
100
AcDbEntity
  8
KI1
100
AcDbLine
 10
170.0
 20
210.625379
 30
0.0
 11
170.0
 21
210.25
 31
0.0
  0
ARC
  5
2AC
330
1E
100
AcDbEntity
  8
KI1
100
AcDbCircle
 10
179.399998
 20
207.950001
 30
0.0
 40
0.4
100
AcDbArc
 50
179.9999909999999
 51
0.00001
  0
ARC
  5
2AD
330
1E
100
AcDbEntity
  8
KI1
100
AcDbCircle
 10
178.700001
 20
210.6500019999999
 30
0.0
 40
0.3
100
AcDbArc
 50
0.0
 51
90.00000300000001
  0
LINE
  5
2AE
330
1E
100
AcDbEntity
  8
KI1
100
AcDbLine
 10
172.0000189999999
 20
210.25
 30
0.0
 11
174.000021
 21
210.950001
 31
0.0
  0
LINE
  5
2AF
330
1E
100
AcDbEntity
  8
KI1
100
AcDbLine
 10
174.0000189999999
 20
210.950001
 30
0.0
 11
178.700001
 21
210.950001
 31
0.0
  0
LINE
  5
2B0
330
1E
100
AcDbEntity
  8
KI1
100
AcDbLine
 10
179.0
 20
210.6500019999999
 30
0.0
 11
179.0
 21
207.950001
 31
0.0
  0
LINE
  5
2B1
330
1E
100
AcDbEntity
  8
KI1
100
AcDbLine
 10
172.0000189999999
 20
210.25
 30
0.0
 11
170.0
 21
210.25
 31
0.0
  0
LINE
  5
2B2
330
1E
100
AcDbEntity
  8
KI1
100
AcDbLine
 10
170.350027
 20
211.1023569999999
 30
0.0
 11
174.000013
 21
212.25
 31
0.0
  0
LINE
  5
2B3
330
1E
100
AcDbEntity
  8
KI1
100
AcDbLine
 10
179.7999989999999
 20
207.950001
 30
0.0
 11
179.7999989999999
 21
209.7286799999999
 31
0.0
  0
ARC
  5
2B4
330
1E
100
AcDbEntity
  8
KI1
100
AcDbCircle
 10
185.0
 20
209.849998
 30
0.0
 40
0.5
100
AcDbArc
 50
0.0
 51
90.00000300000001
  0
ARC
  5
2B5
330
1E
100
AcDbEntity
  8
KI1
100
AcDbCircle
 10
183.700001
 20
208.7499999999999
 30
0.0
 40
0.3
100
AcDbArc
 50
0.0
 51
90.00000300000001
  0
LINE
  5
2B6
330
1E
100
AcDbEntity
  8
KI1
100
AcDbLine
 10
183.700001
 20
209.049999
 30
0.0
 11
180.961521
 21
209.049999
 31
0.0
  0
LINE
  5
2B7
330
1E
100
AcDbEntity
  8
KI1
100
AcDbLine
 10
185.0
 20
210.349998
 30
0.0
 11
181.4999999999999
 21
210.349998
 31
0.0
  0
LINE
  5
2B8
330
1E
100
AcDbEntity
  8
KI1
100
AcDbLine
 10
185.0
 20
208.349998
 30
0.0
 11
185.5
 21
208.349998
 31
0.0
  0
LINE
  5
2B9
330
1E
100
AcDbEntity
  8
KI1
100
AcDbLine
 10
185.5
 20
208.349998
 30
0.0
 11
185.5
 21
209.849998
 31
0.0
  0
LINE
  5
2BA
330
1E
100
AcDbEntity
  8
KI1
100
AcDbLine
 10
180.1414229999999
 20
209.870102
 30
0.0
 11
180.961524
 21
209.0500009999999
 31
0.0
  0
LINE
  5
2BB
330
1E
100
AcDbEntity
  8
KI1
100
AcDbLine
 10
206.999968
 20
212.25
 30
0.0
 11
201.607106
 21
212.25
 31
0.0
  0
LINE
  5
2BC
330
1E
100
AcDbEntity
  8
KI1
100
AcDbLine
 10
202.3000029999999
 20
210.950001
 30
0.0
 11
206.9999769999999
 21
210.950001
 31
0.0
  0
ARC
  5
2BD
330
1E
100
AcDbEntity
  8
KI1
100
AcDbCircle
 10
201.607106
 20
211.75
 30
0.0
 40
0.5
100
AcDbArc
 50
90.0
 51
134.999984
1001
GENIUS_GENODEF_13
1002
{
1000
HIER
1070
     0
1002
}
1002
{
1000
MANEDIT
1070
     0
1002
}
1002
{
1000
NOSEL
1070
     0
1002
}
1002
{
1000
BEHIND
1070
     0
1002
}
1002
{
1000
OTHER
1070
     0
1002
}
1002
{
1000
REACTOR
1002
}
1001
GENIUS_GENOBJ-N-FIL_13
1002
{
1000
OWNER
1000
GEN
1002
}
  0
ARC
  5
2BE
330
1E
100
AcDbEntity
  8
KI1
100
AcDbCircle
 10
201.599998
 20
207.950001
 30
0.0
 40
0.4
100
AcDbArc
 50
179.9999909999999
 51
0.00001
  0
ARC
  5
2BF
330
1E
100
AcDbEntity
  8
KI1
100
AcDbCircle
 10
196.0
 20
209.849998
 30
0.0
 40
0.5
100
AcDbArc
 50
90.00000300000001
 51
180.000005
  0
ARC
  5
2C0
330
1E
100
AcDbEntity
  8
KI1
100
AcDbCircle
 10
197.300003
 20
208.7499999999999
 30
0.0
 40
0.3
100
AcDbArc
 50
90.00000300000001
 51
180.000005
  0
ARC
  5
2C1
330
1E
100
AcDbEntity
  8
KI1
100
AcDbCircle
 10
202.3000029999999
 20
210.6500019999999
 30
0.0
 40
0.3
100
AcDbArc
 50
90.00000300000001
 51
180.000005
  0
ARC
  5
2C2
330
1E
100
AcDbEntity
  8
KI1
100
AcDbCircle
 10
201.0
 20
209.7286799999999
 30
0.0
 40
0.2
100
AcDbArc
 50
0.0
 51
135.0
  0
LINE
  5
2C3
330
1E
100
AcDbEntity
  8
KI1
100
AcDbLine
 10
200.038475
 20
209.049999
 30
0.0
 11
197.300003
 21
209.049999
 31
0.0
  0
LINE
  5
2C4
330
1E
100
AcDbEntity
  8
KI1
100
AcDbLine
 10
202.0
 20
207.950001
 30
0.0
 11
202.0
 21
210.6500019999999
 31
0.0
  0
LINE
  5
2C5
330
1E
100
AcDbEntity
  8
KI1
100
AcDbLine
 10
201.253553
 20
212.1035529999999
 30
0.0
 11
199.499996
 21
210.349998
 31
0.0
  0
LINE
  5
2C6
330
1E
100
AcDbEntity
  8
KI1
100
AcDbLine
 10
199.5
 20
210.349998
 30
0.0
 11
196.0
 21
210.349998
 31
0.0
  0
LINE
  5
2C7
330
1E
100
AcDbEntity
  8
KI1
100
AcDbLine
 10
195.5
 20
208.349998
 30
0.0
 11
196.0
 21
208.349998
 31
0.0
  0
LINE
  5
2C8
330
1E
100
AcDbEntity
  8
KI1
100
AcDbLine
 10
195.5
 20
209.849998
 30
0.0
 11
195.5
 21
208.349998
 31
0.0
  0
LINE
  5
2C9
330
1E
100
AcDbEntity
  8
KI1
100
AcDbLine
 10
200.038476
 20
209.049999
 30
0.0
 11
200.8585769999999
 21
209.8701
 31
0.0
  0
LINE
  5
2CA
330
1E
100
AcDbEntity
  8
KI1
100
AcDbLine
 10
201.199997
 20
209.7286799999999
 30
0.0
 11
201.199997
 21
207.950001
 31
0.0
  0
ARC
  5
2CB
330
1E
100
AcDbEntity
  8
KI1
100
AcDbCircle
 10
210.4999999999999
 20
210.625373
 30
0.0
 40
0.5
100
AcDbArc
 50
0.0
 51
72.545611
1001
GENIUS_GENOBJ-N-FIL_13
1002
{
1000
OWNER
1000
GEN
1002
}
1001
GENIUS_GENODEF_13
1002
{
1000
HIER
1070
     0
1002
}
1002
{
1000
MANEDIT
1070
     0
1002
}
1002
{
1000
NOSEL
1070
     0
1002
}
1002
{
1000
BEHIND
1070
     0
1002
}
1002
{
1000
OTHER
1070
     0
1002
}
1002
{
1000
REACTOR
1002
}
  0
LINE
  5
2CC
330
1E
100
AcDbEntity
  8
KI1
100
AcDbLine
 10
211.0
 20
210.625373
 30
0.0
 11
211.0
 21
210.25
 31
0.0
  0
LINE
  5
2CD
330
1E
100
AcDbEntity
  8
KI1
100
AcDbLine
 10
206.9999769999999
 20
210.949999
 30
0.0
 11
208.9999769999999
 21
210.249999
 31
0.0
  0
LINE
  5
2CE
330
1E
100
AcDbEntity
  8
KI1
100
AcDbLine
 10
211.0
 20
210.25
 30
0.0
 11
208.9999769999999
 21
210.25
 31
0.0
  0
LINE
  5
2CF
330
1E
100
AcDbEntity
  8
KI1
100
AcDbLine
 10
206.999968
 20
212.25
 30
0.0
 11
210.6499729999999
 21
211.1023509999999
 31
0.0
  0
LINE
  5
2D0
330
1E
100
AcDbEntity
  8
SU
100
AcDbLine
 10
289.499996
 20
220.25
 30
0.0
 11
277.4999999999999
 21
220.25
 31
0.0
  0
LINE
  5
2D1
330
1E
100
AcDbEntity
  8
SU
100
AcDbLine
 10
289.3799959999999
 20
220.05
 30
0.0
 11
277.62
 21
220.05
 31
0.0
  0
LINE
  5
2D2
330
1E
100
AcDbEntity
  8
SU
100
AcDbLine
 10
289.259996
 20
219.85
 30
0.0
 11
277.74
 21
219.85
 31
0.0
  0
LINE
  5
2D3
330
1E
100
AcDbEntity
  8
SU
100
AcDbLine
 10
289.139997
 20
219.6500009999999
 30
0.0
 11
277.86
 21
219.6500009999999
 31
0.0
  0
LINE
  5
2D4
330
1E
100
AcDbEntity
  8
SU
100
AcDbLine
 10
289.019997
 20
219.450001
 30
0.0
 11
277.98
 21
219.450001
 31
0.0
  0
LINE
  5
2D5
330
1E
100
AcDbEntity
  8
SU
100
AcDbLine
 10
288.899997
 20
219.2500009999999
 30
0.0
 11
278.099999
 21
219.2500009999999
 31
0.0
  0
LINE
  5
2D6
330
1E
100
AcDbEntity
  8
SU
100
AcDbLine
 10
288.779997
 20
219.050001
 30
0.0
 11
278.219999
 21
219.050001
 31
0.0
  0
LINE
  5
2D7
330
1E
100
AcDbEntity
  8
SU
100
AcDbLine
 10
288.6599979999999
 20
218.8500009999999
 30
0.0
 11
278.339999
 21
218.8500009999999
 31
0.0
  0
LINE
  5
2D8
330
1E
100
AcDbEntity
  8
SU
100
AcDbLine
 10
288.539998
 20
218.6500009999999
 30
0.0
 11
278.459999
 21
218.6500009999999
 31
0.0
  0
LINE
  5
2D9
330
1E
100
AcDbEntity
  8
SU
100
AcDbLine
 10
288.419998
 20
218.450002
 30
0.0
 11
278.579999
 21
218.450002
 31
0.0
  0
LINE
  5
2DA
330
1E
100
AcDbEntity
  8
SU
100
AcDbLine
 10
288.299998
 20
218.2500019999999
 30
0.0
 11
278.699999
 21
218.2500019999999
 31
0.0
  0
LINE
  5
2DB
330
1E
100
AcDbEntity
  8
SU
100
AcDbLine
 10
288.179998
 20
218.050002
 30
0.0
 11
278.8199989999999
 21
218.050002
 31
0.0
  0
LINE
  5
2DC
330
1E
100
AcDbEntity
  8
SU
100
AcDbLine
 10
288.0599989999999
 20
217.8500019999999
 30
0.0
 11
278.939999
 21
217.8500019999999
 31
0.0
  0
LINE
  5
2DD
330
1E
100
AcDbEntity
  8
SU
100
AcDbLine
 10
287.9399989999999
 20
217.650002
 30
0.0
 11
279.059999
 21
217.650002
 31
0.0
  0
LINE
  5
2DE
330
1E
100
AcDbEntity
  8
SU
100
AcDbLine
 10
287.699999
 20
217.250003
 30
0.0
 11
279.299998
 21
217.250003
 31
0.0
  0
LINE
  5
2DF
330
1E
100
AcDbEntity
  8
SU
100
AcDbLine
 10
287.819999
 20
217.4500029999999
 30
0.0
 11
279.1799979999999
 21
217.4500029999999
 31
0.0
  0
LINE
  5
2E0
330
1E
100
AcDbEntity
  8
SU
100
AcDbLine
 10
286.98
 20
216.050004
 30
0.0
 11
280.019998
 21
216.050004
 31
0.0
  0
LINE
  5
2E1
330
1E
100
AcDbEntity
  8
SU
100
AcDbLine
 10
286.8600009999999
 20
215.850004
 30
0.0
 11
280.1399979999999
 21
215.850004
 31
0.0
  0
LINE
  5
2E2
330
1E
100
AcDbEntity
  8
SU
100
AcDbLine
 10
286.7400009999999
 20
215.650004
 30
0.0
 11
280.259997
 21
215.650004
 31
0.0
  0
LINE
  5
2E3
330
1E
100
AcDbEntity
  8
SU
100
AcDbLine
 10
286.620001
 20
215.4500049999999
 30
0.0
 11
280.379997
 21
215.4500049999999
 31
0.0
  0
LINE
  5
2E4
330
1E
100
AcDbEntity
  8
SU
100
AcDbLine
 10
286.500001
 20
215.2500049999999
 30
0.0
 11
280.499997
 21
215.2500049999999
 31
0.0
  0
LINE
  5
2E5
330
1E
100
AcDbEntity
  8
SU
100
AcDbLine
 10
286.3800009999999
 20
215.0500049999999
 30
0.0
 11
280.619997
 21
215.0500049999999
 31
0.0
  0
LINE
  5
2E6
330
1E
100
AcDbEntity
  8
SU
100
AcDbLine
 10
286.2600009999999
 20
214.8500049999999
 30
0.0
 11
280.739997
 21
214.8500049999999
 31
0.0
  0
LINE
  5
2E7
330
1E
100
AcDbEntity
  8
SU
100
AcDbLine
 10
286.140001
 20
214.6500049999999
 30
0.0
 11
280.859997
 21
214.6500049999999
 31
0.0
  0
LINE
  5
2E8
330
1E
100
AcDbEntity
  8
SU
100
AcDbLine
 10
286.0200009999999
 20
214.4500049999999
 30
0.0
 11
280.979997
 21
214.4500049999999
 31
0.0
  0
LINE
  5
2E9
330
1E
100
AcDbEntity
  8
SU
100
AcDbLine
 10
285.9000009999999
 20
214.250006
 30
0.0
 11
281.099997
 21
214.250006
 31
0.0
  0
LINE
  5
2EA
330
1E
100
AcDbEntity
  8
SU
100
AcDbLine
 10
285.780002
 20
214.0500059999999
 30
0.0
 11
281.219996
 21
214.0500059999999
 31
0.0
  0
LINE
  5
2EB
330
1E
100
AcDbEntity
  8
SU
100
AcDbLine
 10
285.6600029999999
 20
213.850006
 30
0.0
 11
281.3399959999999
 21
213.850006
 31
0.0
  0
LINE
  5
2EC
330
1E
100
AcDbEntity
  8
SU
100
AcDbLine
 10
285.5400029999999
 20
213.650006
 30
0.0
 11
281.4599959999999
 21
213.650006
 31
0.0
  0
LINE
  5
2ED
330
1E
100
AcDbEntity
  8
SU
100
AcDbLine
 10
285.4200029999999
 20
213.450006
 30
0.0
 11
281.579996
 21
213.450006
 31
0.0
  0
LINE
  5
2EE
330
1E
100
AcDbEntity
  8
SU
100
AcDbLine
 10
285.300003
 20
213.2500069999999
 30
0.0
 11
281.699996
 21
213.2500069999999
 31
0.0
  0
LINE
  5
2EF
330
1E
100
AcDbEntity
  8
SU
100
AcDbLine
 10
285.180003
 20
213.050007
 30
0.0
 11
281.819996
 21
213.050007
 31
0.0
  0
LINE
  5
2F0
330
1E
100
AcDbEntity
  8
SU
100
AcDbLine
 10
285.0600029999999
 20
212.8500069999999
 30
0.0
 11
281.939996
 21
212.8500069999999
 31
0.0
  0
LINE
  5
2F1
330
1E
100
AcDbEntity
  8
SU
100
AcDbLine
 10
284.9400029999999
 20
212.650007
 30
0.0
 11
282.059996
 21
212.650007
 31
0.0
  0
LINE
  5
2F2
330
1E
100
AcDbEntity
  8
SU
100
AcDbLine
 10
284.7000039999999
 20
212.250008
 30
0.0
 11
282.299995
 21
212.250008
 31
0.0
  0
LINE
  5
2F3
330
1E
100
AcDbEntity
  8
SU
100
AcDbLine
 10
284.820003
 20
212.4500069999999
 30
0.0
 11
282.179996
 21
212.4500069999999
 31
0.0
  0
LINE
  5
2F4
330
1E
100
AcDbEntity
  8
SU
100
AcDbLine
 10
284.580004
 20
212.050008
 30
0.0
 11
282.419995
 21
212.050008
 31
0.0
  0
LINE
  5
2F5
330
1E
100
AcDbEntity
  8
SU
100
AcDbLine
 10
284.460004
 20
211.850008
 30
0.0
 11
282.539995
 21
211.850008
 31
0.0
  0
LINE
  5
2F6
330
1E
100
AcDbEntity
  8
SU
100
AcDbLine
 10
284.340004
 20
211.650008
 30
0.0
 11
282.659995
 21
211.650008
 31
0.0
  0
LINE
  5
2F7
330
1E
100
AcDbEntity
  8
SU
100
AcDbLine
 10
284.2200049999999
 20
211.450008
 30
0.0
 11
282.779995
 21
211.450008
 31
0.0
  0
LINE
  5
2F8
330
1E
100
AcDbEntity
  8
SU
100
AcDbLine
 10
284.1000049999999
 20
211.2500089999999
 30
0.0
 11
282.899995
 21
211.2500089999999
 31
0.0
  0
LINE
  5
2F9
330
1E
100
AcDbEntity
  8
SU
100
AcDbLine
 10
283.860003
 20
210.8500089999999
 30
0.0
 11
283.139995
 21
210.8500089999999
 31
0.0
  0
LINE
  5
2FA
330
1E
100
AcDbEntity
  8
SU
100
AcDbLine
 10
283.980005
 20
211.0500089999999
 30
0.0
 11
283.0199949999999
 21
211.0500089999999
 31
0.0
  0
LINE
  5
2FB
330
1E
100
AcDbEntity
  8
SU
100
AcDbLine
 10
283.7400029999999
 20
210.6500089999999
 30
0.0
 11
283.259995
 21
210.6500089999999
 31
0.0
  0
LINE
  5
2FC
330
1E
100
AcDbEntity
  8
SU
100
AcDbLine
 10
283.5000019999999
 20
210.249996
 30
0.0
 11
277.4999999999999
 21
220.25
 31
0.0
  0
LINE
  5
2FD
330
1E
100
AcDbEntity
  8
SU
100
AcDbLine
 10
283.6200079999999
 20
210.4500119999999
 30
0.0
 11
283.379992
 21
210.4500119999999
 31
0.0
  0
LINE
  5
2FE
330
1E
100
AcDbEntity
  8
SU
100
AcDbLine
 10
283.4999999999999
 20
210.25
 30
0.0
 11
289.499996
 21
220.25
 31
0.0
  0
LINE
  5
2FF
330
1E
100
AcDbEntity
  8
SU
100
AcDbLine
 10
287.1
 20
216.2500039999999
 30
0.0
 11
279.899998
 21
216.2500039999999
 31
0.0
  0
LINE
  5
300
330
1E
100
AcDbEntity
  8
SU
100
AcDbLine
 10
287.22
 20
216.450004
 30
0.0
 11
279.7799979999999
 21
216.450004
 31
0.0
  0
LINE
  5
301
330
1E
100
AcDbEntity
  8
SU
100
AcDbLine
 10
287.339999
 20
216.6500029999999
 30
0.0
 11
279.6599979999999
 21
216.6500029999999
 31
0.0
  0
LINE
  5
302
330
1E
100
AcDbEntity
  8
SU
100
AcDbLine
 10
287.459999
 20
216.850003
 30
0.0
 11
279.539998
 21
216.850003
 31
0.0
  0
LINE
  5
303
330
1E
100
AcDbEntity
  8
SU
100
AcDbLine
 10
287.579999
 20
217.0500029999999
 30
0.0
 11
279.419998
 21
217.0500029999999
 31
0.0
  0
TEXT
  5
304
330
1E
100
AcDbEntity
  8
SU
100
AcDbText
 10
79.2
 20
422.5783329999999
 30
0.0
 40
7.0
  1
24
 50
90.0
 41
0.8299999999999998
100
AcDbText
  0
TEXT
  5
305
330
1E
100
AcDbEntity
  8
SU
100
AcDbText
 10
79.2
 20
390.8024629999999
 30
0.0
 40
7.0
  1
12
 50
90.0
 41
0.8299999999999998
100
AcDbText
  0
TEXT
  5
306
330
1E
100
AcDbEntity
  8
SU
100
AcDbText
 10
282.2
 20
320.902381
 30
0.0
 40
10.0
  1
H
 50
90.0
 41
0.8299999999999998
100
AcDbText
  0
TEXT
  5
307
330
1E
100
AcDbEntity
  8
SU
100
AcDbText
 10
267.2
 20
278.6036669999999
 30
0.0
 40
7.0
  1
ドアH（DH）=H-37
 50
90.0
 41
0.8299999999999998
100
AcDbText
  0
TEXT
  5
308
330
1E
100
AcDbEntity
  8
SU
100
AcDbText
 10
252.1999999999999
 20
422.580254
 30
0.0
 40
7.0
  1
3
 50
90.0
 41
0.8299999999999998
100
AcDbText
  0
TEXT
  5
309
330
1E
100
AcDbEntity
  8
SU
100
AcDbText
 10
267.2
 20
422.5783329999999
 30
0.0
 40
7.0
  1
24
 50
90.0
 41
0.8299999999999998
100
AcDbText
  0
TEXT
  5
30A
330
1E
100
AcDbEntity
  8
SU
100
AcDbText
 10
267.2
 20
200.296104
 30
0.0
 40
7.0
  1
2
 50
90.0
 41
0.8299999999999998
100
AcDbText
  0
TEXT
  5
30B
330
1E
100
AcDbEntity
  8
SU
100
AcDbText
 10
184.9666669999999
 20
179.55
 30
0.0
 40
7.0
  1
25
 41
0.8299999999999998
100
AcDbText
  0
TEXT
  5
30C
330
1E
100
AcDbEntity
  8
SU
100
AcDbText
 10
217.94
 20
179.55
 30
0.0
 40
7.0
  1
10.5
 41
0.8299999999999998
100
AcDbText
  0
TEXT
  5
30D
330
1E
100
AcDbEntity
  8
SU
100
AcDbText
 10
185.7966669999999
 20
244.55
 30
0.0
 40
7.0
  1
41
 41
0.8299999999999998
100
AcDbText
  0
TEXT
  5
30E
330
1E
100
AcDbEntity
  8
SU
100
AcDbText
 10
218.7699999999999
 20
244.55
 30
0.0
 40
7.0
  1
2.5
 41
0.8299999999999998
100
AcDbText
  0
TEXT
  5
30F
330
1E
100
AcDbEntity
  8
SU
100
AcDbText
 10
282.2
 20
110.902381
 30
0.0
 40
10.0
  1
H
 50
90.0
 41
0.8299999999999998
100
AcDbText
  0
TEXT
  5
310
330
1E
100
AcDbEntity
  8
SU
100
AcDbText
 10
267.2
 20
79.976333
 30
0.0
 40
7.0
  1
ドアH（DH）=H-40
 50
90.0
 41
0.8299999999999998
100
AcDbText
  0
TEXT
  5
311
330
1E
100
AcDbEntity
  8
SU
100
AcDbText
 10
252.1999999999999
 20
74.32425400000001
 30
0.0
 40
7.0
  1
（8）
 50
90.0
 41
0.8299999999999998
100
AcDbText
  0
TEXT
  5
312
330
1E
100
AcDbEntity
  8
SU
100
AcDbText
 10
267.2
 20
39.708
 30
0.0
 40
7.0
  1
（5）
 50
90.0
 41
0.8299999999999998
100
AcDbText
  0
TEXT
  5
313
330
1E
100
AcDbEntity
  8
SU
100
AcDbText
 10
183.9666669999999
 20
94.55
 30
0.0
 40
7.0
  1
38
 41
0.8299999999999998
100
AcDbText
  0
TEXT
  5
314
330
1E
100
AcDbEntity
  8
SU
100
AcDbText
 10
220.161677
 20
94.55
 30
0.0
 40
7.0
  1
5
 41
0.8299999999999998
100
AcDbText
  0
TEXT
  5
315
330
1E
100
AcDbEntity
  8
SU
100
AcDbText
 10
565.2
 20
481.9023809999999
 30
0.0
 40
10.0
  1
H
 50
90.0
 41
0.8299999999999998
100
AcDbText
  0
TEXT
  5
316
330
1E
100
AcDbEntity
  8
SU
100
AcDbText
 10
550.2
 20
470.976333
 30
0.0
 40
7.0
  1
ドアH（DH）
 50
90.0
 41
0.8299999999999998
100
AcDbText
  0
TEXT
  5
317
330
1E
100
AcDbEntity
  8
SU
100
AcDbText
 10
550.2
 20
438.343466
 30
0.0
 40
7.0
  1
3
 50
90.0
 41
0.8299999999999998
100
AcDbText
  0
TEXT
  5
318
330
1E
100
AcDbEntity
  8
SU
100
AcDbText
 10
565.2
 20
434.3016669999999
 30
0.0
 40
7.0
  1
12
 50
90.0
 41
0.8299999999999998
100
AcDbText
  0
TEXT
  5
319
330
1E
100
AcDbEntity
  8
SU
100
AcDbText
 10
431.7849999999999
 20
415.5499999999999
 30
0.0
 40
7.0
  1
106
 41
0.8299999999999998
100
AcDbText
  0
TEXT
  5
31A
330
1E
100
AcDbEntity
  8
SU
100
AcDbText
 10
367.087641
 20
415.5499999999999
 30
0.0
 40
7.0
  1
3.5
 41
0.8299999999999998
100
AcDbText
  0
TEXT
  5
31B
330
1E
100
AcDbEntity
  8
SU
100
AcDbText
 10
498.5220889999999
 20
415.5499999999999
 30
0.0
 40
7.0
  1
3.5
 41
0.8299999999999998
100
AcDbText
  0
LINE
  5
31C
330
1E
100
AcDbEntity
  8
OS
100
AcDbLine
 10
112.8217179999999
 20
416.2499999999999
 30
0.0
 11
136.821718
 21
440.2499999999999
 31
0.0
1001
GENIUS_GENODEF_13
1002
{
1000
HIER
1070
     0
1002
}
1002
{
1000
MANEDIT
1070
     0
1002
}
1002
{
1000
NOSEL
1070
     0
1002
}
1002
{
1000
BEHIND
1070
     0
1002
}
1002
{
1000
OTHER
1070
     0
1002
}
1002
{
1000
REACTOR
1002
}
1001
GENIUS_GENOBJ-N-HTC_13
1002
{
1000
OWNER
1000
GEN
1002
}
1001
GENIUS_GENHATCH_13
1002
{
1000
DATA
1040
45.0
1042
2.5
1000
_U
1070
     0
1011
130.10584
1021
428.2905179999999
1031
0.0
1002
}
1002
{
1000
UCS
1010
0.0
1020
0.0
1030
0.0
1010
1.0
1020
0.0
1030
0.0
1010
0.0
1020
1.0
1030
0.0
1002
}
1001
ACAD
1010
0.0
1020
0.0
1030
0.0
  0
LINE
  5
31D
330
1E
100
AcDbEntity
  8
OS
100
AcDbLine
 10
122.7212129999999
 20
416.2499999999999
 30
0.0
 11
146.7212129999999
 21
440.2499999999999
 31
0.0
1001
GENIUS_GENODEF_13
1002
{
1000
HIER
1070
     0
1002
}
1002
{
1000
MANEDIT
1070
     0
1002
}
1002
{
1000
NOSEL
1070
     0
1002
}
1002
{
1000
BEHIND
1070
     0
1002
}
1002
{
1000
OTHER
1070
     0
1002
}
1002
{
1000
REACTOR
1002
}
1001
GENIUS_GENOBJ-N-HTC_13
1002
{
1000
OWNER
1000
GEN
1002
}
1001
GENIUS_GENHATCH_13
1002
{
1000
DATA
1040
45.0
1042
2.5
1000
_U
1070
     0
1011
130.10584
1021
428.2905179999999
1031
0.0
1002
}
1002
{
1000
UCS
1010
0.0
1020
0.0
1030
0.0
1010
1.0
1020
0.0
1030
0.0
1010
0.0
1020
1.0
1030
0.0
1002
}
1001
ACAD
1010
0.0
1020
0.0
1030
0.0
  0
LINE
  5
31E
330
1E
100
AcDbEntity
  8
OS
100
AcDbLine
 10
132.620708
 20
416.2499999999999
 30
0.0
 11
156.620708
 21
440.2499999999999
 31
0.0
1001
GENIUS_GENODEF_13
1002
{
1000
HIER
1070
     0
1002
}
1002
{
1000
MANEDIT
1070
     0
1002
}
1002
{
1000
NOSEL
1070
     0
1002
}
1002
{
1000
BEHIND
1070
     0
1002
}
1002
{
1000
OTHER
1070
     0
1002
}
1002
{
1000
REACTOR
1002
}
1001
GENIUS_GENOBJ-N-HTC_13
1002
{
1000
OWNER
1000
GEN
1002
}
1001
GENIUS_GENHATCH_13
1002
{
1000
DATA
1040
45.0
1042
2.5
1000
_U
1070
     0
1011
130.10584
1021
428.2905179999999
1031
0.0
1002
}
1002
{
1000
UCS
1010
0.0
1020
0.0
1030
0.0
1010
1.0
1020
0.0
1030
0.0
1010
0.0
1020
1.0
1030
0.0
1002
}
1001
ACAD
1010
0.0
1020
0.0
1030
0.0
  0
LINE
  5
31F
330
1E
100
AcDbEntity
  8
OS
100
AcDbLine
 10
142.520203
 20
416.2499999999999
 30
0.0
 11
166.520203
 21
440.2499999999999
 31
0.0
1001
GENIUS_GENODEF_13
1002
{
1000
HIER
1070
     0
1002
}
1002
{
1000
MANEDIT
1070
     0
1002
}
1002
{
1000
NOSEL
1070
     0
1002
}
1002
{
1000
BEHIND
1070
     0
1002
}
1002
{
1000
OTHER
1070
     0
1002
}
1002
{
1000
REACTOR
1002
}
1001
GENIUS_GENOBJ-N-HTC_13
1002
{
1000
OWNER
1000
GEN
1002
}
1001
GENIUS_GENHATCH_13
1002
{
1000
DATA
1040
45.0
1042
2.5
1000
_U
1070
     0
1011
130.10584
1021
428.2905179999999
1031
0.0
1002
}
1002
{
1000
UCS
1010
0.0
1020
0.0
1030
0.0
1010
1.0
1020
0.0
1030
0.0
1010
0.0
1020
1.0
1030
0.0
1002
}
1001
ACAD
1010
0.0
1020
0.0
1030
0.0
  0
LINE
  5
320
330
1E
100
AcDbEntity
  8
OS
100
AcDbLine
 10
152.419697
 20
416.2499999999999
 30
0.0
 11
153.000001
 21
416.830304
 31
0.0
1001
GENIUS_GENODEF_13
1002
{
1000
HIER
1070
     0
1002
}
1002
{
1000
MANEDIT
1070
     0
1002
}
1002
{
1000
NOSEL
1070
     0
1002
}
1002
{
1000
BEHIND
1070
     0
1002
}
1002
{
1000
OTHER
1070
     0
1002
}
1002
{
1000
REACTOR
1002
}
1001
GENIUS_GENOBJ-N-HTC_13
1002
{
1000
OWNER
1000
GEN
1002
}
1001
GENIUS_GENHATCH_13
1002
{
1000
DATA
1040
45.0
1042
2.5
1000
_U
1070
     0
1011
130.10584
1021
428.2905179999999
1031
0.0
1002
}
1002
{
1000
UCS
1010
0.0
1020
0.0
1030
0.0
1010
1.0
1020
0.0
1030
0.0
1010
0.0
1020
1.0
1030
0.0
1002
}
1001
ACAD
1010
0.0
1020
0.0
1030
0.0
  0
LINE
  5
321
330
1E
100
AcDbEntity
  8
OS
100
AcDbLine
 10
162.319192
 20
416.2499999999999
 30
0.0
 11
165.5999999999999
 21
419.530808
 31
0.0
1001
GENIUS_GENODEF_13
1002
{
1000
HIER
1070
     0
1002
}
1002
{
1000
MANEDIT
1070
     0
1002
}
1002
{
1000
NOSEL
1070
     0
1002
}
1002
{
1000
BEHIND
1070
     0
1002
}
1002
{
1000
OTHER
1070
     0
1002
}
1002
{
1000
REACTOR
1002
}
1001
GENIUS_GENOBJ-N-HTC_13
1002
{
1000
OWNER
1000
GEN
1002
}
1001
GENIUS_GENHATCH_13
1002
{
1000
DATA
1040
45.0
1042
2.5
1000
_U
1070
     0
1011
130.10584
1021
428.2905179999999
1031
0.0
1002
}
1002
{
1000
UCS
1010
0.0
1020
0.0
1030
0.0
1010
1.0
1020
0.0
1030
0.0
1010
0.0
1020
1.0
1030
0.0
1002
}
1001
ACAD
1010
0.0
1020
0.0
1030
0.0
  0
LINE
  5
322
330
1E
100
AcDbEntity
  8
OS
100
AcDbLine
 10
172.218687
 20
416.2499999999999
 30
0.0
 11
196.218687
 21
440.2499999999999
 31
0.0
1001
GENIUS_GENODEF_13
1002
{
1000
HIER
1070
     0
1002
}
1002
{
1000
MANEDIT
1070
     0
1002
}
1002
{
1000
NOSEL
1070
     0
1002
}
1002
{
1000
BEHIND
1070
     0
1002
}
1002
{
1000
OTHER
1070
     0
1002
}
1002
{
1000
REACTOR
1002
}
1001
GENIUS_GENOBJ-N-HTC_13
1002
{
1000
OWNER
1000
GEN
1002
}
1001
GENIUS_GENHATCH_13
1002
{
1000
DATA
1040
45.0
1042
2.5
1000
_U
1070
     0
1011
130.10584
1021
428.2905179999999
1031
0.0
1002
}
1002
{
1000
UCS
1010
0.0
1020
0.0
1030
0.0
1010
1.0
1020
0.0
1030
0.0
1010
0.0
1020
1.0
1030
0.0
1002
}
1001
ACAD
1010
0.0
1020
0.0
1030
0.0
  0
LINE
  5
323
330
1E
100
AcDbEntity
  8
OS
100
AcDbLine
 10
182.118182
 20
416.2499999999999
 30
0.0
 11
206.118182
 21
440.2499999999999
 31
0.0
1001
GENIUS_GENODEF_13
1002
{
1000
HIER
1070
     0
1002
}
1002
{
1000
MANEDIT
1070
     0
1002
}
1002
{
1000
NOSEL
1070
     0
1002
}
1002
{
1000
BEHIND
1070
     0
1002
}
1002
{
1000
OTHER
1070
     0
1002
}
1002
{
1000
REACTOR
1002
}
1001
GENIUS_GENOBJ-N-HTC_13
1002
{
1000
OWNER
1000
GEN
1002
}
1001
GENIUS_GENHATCH_13
1002
{
1000
DATA
1040
45.0
1042
2.5
1000
_U
1070
     0
1011
130.10584
1021
428.2905179999999
1031
0.0
1002
}
1002
{
1000
UCS
1010
0.0
1020
0.0
1030
0.0
1010
1.0
1020
0.0
1030
0.0
1010
0.0
1020
1.0
1030
0.0
1002
}
1001
ACAD
1010
0.0
1020
0.0
1030
0.0
  0
LINE
  5
324
330
1E
100
AcDbEntity
  8
OS
100
AcDbLine
 10
192.0176769999999
 20
416.2499999999999
 30
0.0
 11
209.5
 21
433.732323
 31
0.0
1001
GENIUS_GENODEF_13
1002
{
1000
HIER
1070
     0
1002
}
1002
{
1000
MANEDIT
1070
     0
1002
}
1002
{
1000
NOSEL
1070
     0
1002
}
1002
{
1000
BEHIND
1070
     0
1002
}
1002
{
1000
OTHER
1070
     0
1002
}
1002
{
1000
REACTOR
1002
}
1001
GENIUS_GENOBJ-N-HTC_13
1002
{
1000
OWNER
1000
GEN
1002
}
1001
GENIUS_GENHATCH_13
1002
{
1000
DATA
1040
45.0
1042
2.5
1000
_U
1070
     0
1011
130.10584
1021
428.2905179999999
1031
0.0
1002
}
1002
{
1000
UCS
1010
0.0
1020
0.0
1030
0.0
1010
1.0
1020
0.0
1030
0.0
1010
0.0
1020
1.0
1030
0.0
1002
}
1001
ACAD
1010
0.0
1020
0.0
1030
0.0
  0
LINE
  5
325
330
1E
100
AcDbEntity
  8
OS
100
AcDbLine
 10
201.917172
 20
416.2499999999999
 30
0.0
 11
209.5
 21
423.832828
 31
0.0
1001
GENIUS_GENODEF_13
1002
{
1000
HIER
1070
     0
1002
}
1002
{
1000
MANEDIT
1070
     0
1002
}
1002
{
1000
NOSEL
1070
     0
1002
}
1002
{
1000
BEHIND
1070
     0
1002
}
1002
{
1000
OTHER
1070
     0
1002
}
1002
{
1000
REACTOR
1002
}
1001
GENIUS_GENOBJ-N-HTC_13
1002
{
1000
OWNER
1000
GEN
1002
}
1001
GENIUS_GENHATCH_13
1002
{
1000
DATA
1040
45.0
1042
2.5
1000
_U
1070
     0
1011
130.10584
1021
428.2905179999999
1031
0.0
1002
}
1002
{
1000
UCS
1010
0.0
1020
0.0
1030
0.0
1010
1.0
1020
0.0
1030
0.0
1010
0.0
1020
1.0
1030
0.0
1002
}
1001
ACAD
1010
0.0
1020
0.0
1030
0.0
  0
TEXT
  5
326
330
1E
100
AcDbEntity
  8
SU
100
AcDbText
 10
89.69666700000001
 20
358.05
 30
0.0
 40
7.0
  1
4
 41
0.8299999999999998
100
AcDbText
  0
TEXT
  5
327
330
1E
100
AcDbEntity
  8
SU
100
AcDbText
 10
152.1406159999999
 20
358.05
 30
0.0
 40
7.0
  1
105
 41
0.8299999999999998
100
AcDbText
  0
TEXT
  5
328
330
1E
100
AcDbEntity
  8
SU
100
AcDbText
 10
218.7699999999999
 20
358.05
 30
0.0
 40
7.0
  1
4
 41
0.8299999999999998
100
AcDbText
  0
TEXT
  5
329
330
1E
100
AcDbEntity
  8
SU
100
AcDbText
 10
118.566667
 20
388.0499999999999
 30
0.0
 40
7.0
  1
47.5
 41
0.8299999999999998
100
AcDbText
  0
TEXT
  5
32A
330
1E
100
AcDbEntity
  8
SU
100
AcDbText
 10
155.828333
 20
388.0499999999999
 30
0.0
 40
7.0
  1
18
 41
0.8299999999999998
100
AcDbText
  0
TEXT
  5
32B
330
1E
100
AcDbEntity
  8
SU
100
AcDbText
 10
158.359746
 20
373.05
 30
0.0
 40
7.0
  1
3
 41
0.8299999999999998
100
AcDbText
  0
TEXT
  5
32C
330
1E
100
AcDbEntity
  8
SU
100
AcDbText
 10
183.9666669999999
 20
388.0499999999999
 30
0.0
 40
7.0
  1
33
 41
0.8299999999999998
100
AcDbText
  0
TEXT
  5
32D
330
1E
100
AcDbEntity
  8
SU
100
AcDbText
 10
215.8132629999999
 20
388.0499999999999
 30
0.0
 40
7.0
  1
3.5
 41
0.8299999999999998
100
AcDbText
  0
LINE
  5
32E
330
1E
100
AcDbEntity
  8
OS
100
AcDbLine
 10
387.0
 20
437.7550509999999
 30
0.0
 11
398.494949
 21
449.2499999999999
 31
0.0
1001
GENIUS_GENOBJ-N-HTC_13
1002
{
1000
OWNER
1000
GEN
1002
}
1001
GENIUS_GENODEF_13
1002
{
1000
HIER
1070
     0
1002
}
1002
{
1000
MANEDIT
1070
     0
1002
}
1002
{
1000
NOSEL
1070
     0
1002
}
1002
{
1000
BEHIND
1070
     0
1002
}
1002
{
1000
OTHER
1070
     0
1002
}
1002
{
1000
REACTOR
1002
}
1001
GENIUS_GENHATCH_13
1002
{
1000
DATA
1040
0.0
1042
0.5
1000
ANSI31
1070
     0
1011
434.053438
1021
443.5842889999999
1031
0.0
1002
}
1002
{
1000
UCS
1010
0.0
1020
0.0
1030
0.0
1010
1.0
1020
0.0
1030
0.0
1010
0.0
1020
1.0
1030
0.0
1002
}
1001
ACAD
1010
0.0
1020
0.0
1030
0.0
  0
LINE
  5
32F
330
1E
100
AcDbEntity
  8
OS
100
AcDbLine
 10
393.394444
 20
434.25
 30
0.0
 11
408.394444
 21
449.2499999999999
 31
0.0
1001
GENIUS_GENOBJ-N-HTC_13
1002
{
1000
OWNER
1000
GEN
1002
}
1001
GENIUS_GENODEF_13
1002
{
1000
HIER
1070
     0
1002
}
1002
{
1000
MANEDIT
1070
     0
1002
}
1002
{
1000
NOSEL
1070
     0
1002
}
1002
{
1000
BEHIND
1070
     0
1002
}
1002
{
1000
OTHER
1070
     0
1002
}
1002
{
1000
REACTOR
1002
}
1001
GENIUS_GENHATCH_13
1002
{
1000
DATA
1040
0.0
1042
0.5
1000
ANSI31
1070
     0
1011
434.053438
1021
443.5842889999999
1031
0.0
1002
}
1002
{
1000
UCS
1010
0.0
1020
0.0
1030
0.0
1010
1.0
1020
0.0
1030
0.0
1010
0.0
1020
1.0
1030
0.0
1002
}
1001
ACAD
1010
0.0
1020
0.0
1030
0.0
  0
LINE
  5
330
330
1E
100
AcDbEntity
  8
OS
100
AcDbLine
 10
403.293939
 20
434.25
 30
0.0
 11
418.293939
 21
449.2499999999999
 31
0.0
1001
GENIUS_GENOBJ-N-HTC_13
1002
{
1000
OWNER
1000
GEN
1002
}
1001
GENIUS_GENODEF_13
1002
{
1000
HIER
1070
     0
1002
}
1002
{
1000
MANEDIT
1070
     0
1002
}
1002
{
1000
NOSEL
1070
     0
1002
}
1002
{
1000
BEHIND
1070
     0
1002
}
1002
{
1000
OTHER
1070
     0
1002
}
1002
{
1000
REACTOR
1002
}
1001
GENIUS_GENHATCH_13
1002
{
1000
DATA
1040
0.0
1042
0.5
1000
ANSI31
1070
     0
1011
434.053438
1021
443.5842889999999
1031
0.0
1002
}
1002
{
1000
UCS
1010
0.0
1020
0.0
1030
0.0
1010
1.0
1020
0.0
1030
0.0
1010
0.0
1020
1.0
1030
0.0
1002
}
1001
ACAD
1010
0.0
1020
0.0
1030
0.0
  0
LINE
  5
331
330
1E
100
AcDbEntity
  8
OS
100
AcDbLine
 10
413.1934339999999
 20
434.25
 30
0.0
 11
428.1934339999999
 21
449.2499999999999
 31
0.0
1001
GENIUS_GENOBJ-N-HTC_13
1002
{
1000
OWNER
1000
GEN
1002
}
1001
GENIUS_GENODEF_13
1002
{
1000
HIER
1070
     0
1002
}
1002
{
1000
MANEDIT
1070
     0
1002
}
1002
{
1000
NOSEL
1070
     0
1002
}
1002
{
1000
BEHIND
1070
     0
1002
}
1002
{
1000
OTHER
1070
     0
1002
}
1002
{
1000
REACTOR
1002
}
1001
GENIUS_GENHATCH_13
1002
{
1000
DATA
1040
0.0
1042
0.5
1000
ANSI31
1070
     0
1011
434.053438
1021
443.5842889999999
1031
0.0
1002
}
1002
{
1000
UCS
1010
0.0
1020
0.0
1030
0.0
1010
1.0
1020
0.0
1030
0.0
1010
0.0
1020
1.0
1030
0.0
1002
}
1001
ACAD
1010
0.0
1020
0.0
1030
0.0
  0
LINE
  5
332
330
1E
100
AcDbEntity
  8
OS
100
AcDbLine
 10
423.092929
 20
434.25
 30
0.0
 11
438.092929
 21
449.2499999999999
 31
0.0
1001
GENIUS_GENOBJ-N-HTC_13
1002
{
1000
OWNER
1000
GEN
1002
}
1001
GENIUS_GENODEF_13
1002
{
1000
HIER
1070
     0
1002
}
1002
{
1000
MANEDIT
1070
     0
1002
}
1002
{
1000
NOSEL
1070
     0
1002
}
1002
{
1000
BEHIND
1070
     0
1002
}
1002
{
1000
OTHER
1070
     0
1002
}
1002
{
1000
REACTOR
1002
}
1001
GENIUS_GENHATCH_13
1002
{
1000
DATA
1040
0.0
1042
0.5
1000
ANSI31
1070
     0
1011
434.053438
1021
443.5842889999999
1031
0.0
1002
}
1002
{
1000
UCS
1010
0.0
1020
0.0
1030
0.0
1010
1.0
1020
0.0
1030
0.0
1010
0.0
1020
1.0
1030
0.0
1002
}
1001
ACAD
1010
0.0
1020
0.0
1030
0.0
  0
LINE
  5
333
330
1E
100
AcDbEntity
  8
OS
100
AcDbLine
 10
432.992424
 20
434.25
 30
0.0
 11
447.992424
 21
449.2499999999999
 31
0.0
1001
GENIUS_GENOBJ-N-HTC_13
1002
{
1000
OWNER
1000
GEN
1002
}
1001
GENIUS_GENODEF_13
1002
{
1000
HIER
1070
     0
1002
}
1002
{
1000
MANEDIT
1070
     0
1002
}
1002
{
1000
NOSEL
1070
     0
1002
}
1002
{
1000
BEHIND
1070
     0
1002
}
1002
{
1000
OTHER
1070
     0
1002
}
1002
{
1000
REACTOR
1002
}
1001
GENIUS_GENHATCH_13
1002
{
1000
DATA
1040
0.0
1042
0.5
1000
ANSI31
1070
     0
1011
434.053438
1021
443.5842889999999
1031
0.0
1002
}
1002
{
1000
UCS
1010
0.0
1020
0.0
1030
0.0
1010
1.0
1020
0.0
1030
0.0
1010
0.0
1020
1.0
1030
0.0
1002
}
1001
ACAD
1010
0.0
1020
0.0
1030
0.0
  0
LINE
  5
334
330
1E
100
AcDbEntity
  8
OS
100
AcDbLine
 10
442.891919
 20
434.25
 30
0.0
 11
457.891919
 21
449.2499999999999
 31
0.0
1001
GENIUS_GENOBJ-N-HTC_13
1002
{
1000
OWNER
1000
GEN
1002
}
1001
GENIUS_GENODEF_13
1002
{
1000
HIER
1070
     0
1002
}
1002
{
1000
MANEDIT
1070
     0
1002
}
1002
{
1000
NOSEL
1070
     0
1002
}
1002
{
1000
BEHIND
1070
     0
1002
}
1002
{
1000
OTHER
1070
     0
1002
}
1002
{
1000
REACTOR
1002
}
1001
GENIUS_GENHATCH_13
1002
{
1000
DATA
1040
0.0
1042
0.5
1000
ANSI31
1070
     0
1011
434.053438
1021
443.5842889999999
1031
0.0
1002
}
1002
{
1000
UCS
1010
0.0
1020
0.0
1030
0.0
1010
1.0
1020
0.0
1030
0.0
1010
0.0
1020
1.0
1030
0.0
1002
}
1001
ACAD
1010
0.0
1020
0.0
1030
0.0
  0
ARC
  5
335
330
1E
100
AcDbEntity
  8
SU
100
AcDbCircle
 10
209.5
 20
386.75
 30
0.0
 40
0.6
100
AcDbArc
 50
180.0
 51
0.0
  0
ARC
  5
336
330
1E
100
AcDbEntity
  8
SU
100
AcDbCircle
 10
209.5
 20
386.75
 30
0.0
 40
0.6
100
AcDbArc
 50
0.0
 51
180.0
  0
ARC
  5
337
330
1E
100
AcDbEntity
  8
SU
100
AcDbCircle
 10
206.0
 20
386.75
 30
0.0
 40
0.6
100
AcDbArc
 50
180.0
 51
0.0
  0
ARC
  5
338
330
1E
100
AcDbEntity
  8
SU
100
AcDbCircle
 10
206.0
 20
386.75
 30
0.0
 40
0.6
100
AcDbArc
 50
0.0
 51
180.0
  0
ARC
  5
339
330
1E
100
AcDbEntity
  8
SU
100
AcDbCircle
 10
173.0
 20
386.75
 30
0.0
 40
0.6
100
AcDbArc
 50
180.0
 51
0.0
  0
ARC
  5
33A
330
1E
100
AcDbEntity
  8
SU
100
AcDbCircle
 10
173.0
 20
386.75
 30
0.0
 40
0.6
100
AcDbArc
 50
0.0
 51
180.0
  0
ARC
  5
33B
330
1E
100
AcDbEntity
  8
SU
100
AcDbCircle
 10
170.0
 20
386.75
 30
0.0
 40
0.6
100
AcDbArc
 50
180.0
 51
0.0
  0
ARC
  5
33C
330
1E
100
AcDbEntity
  8
SU
100
AcDbCircle
 10
170.0
 20
386.75
 30
0.0
 40
0.6
100
AcDbArc
 50
0.0
 51
180.0
  0
ARC
  5
33D
330
1E
100
AcDbEntity
  8
SU
100
AcDbCircle
 10
104.4999999999999
 20
386.75
 30
0.0
 40
0.6
100
AcDbArc
 50
0.0
 51
180.0
  0
ARC
  5
33E
330
1E
100
AcDbEntity
  8
SU
100
AcDbCircle
 10
104.4999999999999
 20
386.75
 30
0.0
 40
0.6
100
AcDbArc
 50
180.0
 51
0.0
  0
ARC
  5
33F
330
1E
100
AcDbEntity
  8
SU
100
AcDbCircle
 10
152.0
 20
386.75
 30
0.0
 40
0.6
100
AcDbArc
 50
180.0
 51
0.0
  0
ARC
  5
340
330
1E
100
AcDbEntity
  8
SU
100
AcDbCircle
 10
152.0
 20
386.75
 30
0.0
 40
0.6
100
AcDbArc
 50
0.0
 51
180.0
  0
ARC
  5
341
330
1E
100
AcDbEntity
  8
SU
100
AcDbCircle
 10
213.5
 20
356.7499999999999
 30
0.0
 40
0.6
100
AcDbArc
 50
180.0
 51
0.0
  0
ARC
  5
342
330
1E
100
AcDbEntity
  8
SU
100
AcDbCircle
 10
213.5
 20
356.7499999999999
 30
0.0
 40
0.6
100
AcDbArc
 50
0.0
 51
180.0
  0
ARC
  5
343
330
1E
100
AcDbEntity
  8
SU
100
AcDbCircle
 10
209.5
 20
356.7499999999999
 30
0.0
 40
0.6
100
AcDbArc
 50
180.0
 51
0.0
  0
ARC
  5
344
330
1E
100
AcDbEntity
  8
SU
100
AcDbCircle
 10
209.5
 20
356.7499999999999
 30
0.0
 40
0.6
100
AcDbArc
 50
0.0
 51
180.0
  0
ARC
  5
345
330
1E
100
AcDbEntity
  8
SU
100
AcDbCircle
 10
104.4999999999999
 20
356.7499999999999
 30
0.0
 40
0.6
100
AcDbArc
 50
180.0
 51
0.0
  0
ARC
  5
346
330
1E
100
AcDbEntity
  8
SU
100
AcDbCircle
 10
104.4999999999999
 20
356.7499999999999
 30
0.0
 40
0.6
100
AcDbArc
 50
0.0
 51
180.0
  0
ARC
  5
347
330
1E
100
AcDbEntity
  8
SU
100
AcDbCircle
 10
100.5
 20
356.7499999999999
 30
0.0
 40
0.6
100
AcDbArc
 50
0.0
 51
180.0
  0
ARC
  5
348
330
1E
100
AcDbEntity
  8
SU
100
AcDbCircle
 10
100.5
 20
356.7499999999999
 30
0.0
 40
0.6
100
AcDbArc
 50
180.0
 51
0.0
  0
ARC
  5
349
330
1E
100
AcDbEntity
  8
SU
100
AcDbCircle
 10
496.4999999999999
 20
414.25
 30
0.0
 40
0.6
100
AcDbArc
 50
180.0
 51
0.0
  0
ARC
  5
34A
330
1E
100
AcDbEntity
  8
SU
100
AcDbCircle
 10
496.4999999999999
 20
414.25
 30
0.0
 40
0.6
100
AcDbArc
 50
0.0
 51
180.0
  0
ARC
  5
34B
330
1E
100
AcDbEntity
  8
SU
100
AcDbCircle
 10
383.4999999999999
 20
414.25
 30
0.0
 40
0.6
100
AcDbArc
 50
0.0
 51
180.0
  0
ARC
  5
34C
330
1E
100
AcDbEntity
  8
SU
100
AcDbCircle
 10
383.4999999999999
 20
414.25
 30
0.0
 40
0.6
100
AcDbArc
 50
180.0
 51
0.0
  0
ARC
  5
34D
330
1E
100
AcDbEntity
  8
SU
100
AcDbCircle
 10
387.0
 20
414.25
 30
0.0
 40
0.6
100
AcDbArc
 50
0.0
 51
180.0
  0
ARC
  5
34E
330
1E
100
AcDbEntity
  8
SU
100
AcDbCircle
 10
387.0
 20
414.25
 30
0.0
 40
0.6
100
AcDbArc
 50
180.0
 51
0.0
  0
ARC
  5
34F
330
1E
100
AcDbEntity
  8
SU
100
AcDbCircle
 10
493.0
 20
414.25
 30
0.0
 40
0.6
100
AcDbArc
 50
180.0
 51
0.0
  0
ARC
  5
350
330
1E
100
AcDbEntity
  8
SU
100
AcDbCircle
 10
493.0
 20
414.25
 30
0.0
 40
0.6
100
AcDbArc
 50
0.0
 51
180.0
  0
ARC
  5
351
330
1E
100
AcDbEntity
  8
SU
100
AcDbCircle
 10
566.5
 20
434.25
 30
0.0
 40
0.6
100
AcDbArc
 50
90.0
 51
270.0
  0
ARC
  5
352
330
1E
100
AcDbEntity
  8
SU
100
AcDbCircle
 10
566.5
 20
434.25
 30
0.0
 40
0.6
100
AcDbArc
 50
270.0
 51
90.0
  0
ARC
  5
353
330
1E
100
AcDbEntity
  8
SU
100
AcDbCircle
 10
551.4999999999999
 20
446.25
 30
0.0
 40
0.6
100
AcDbArc
 50
90.0
 51
270.0
  0
ARC
  5
354
330
1E
100
AcDbEntity
  8
SU
100
AcDbCircle
 10
551.4999999999999
 20
446.25
 30
0.0
 40
0.6
100
AcDbArc
 50
270.0
 51
90.0
  0
ARC
  5
355
330
1E
100
AcDbEntity
  8
SU
100
AcDbCircle
 10
551.4999999999999
 20
449.2499999999999
 30
0.0
 40
0.6
100
AcDbArc
 50
90.0
 51
270.0
  0
ARC
  5
356
330
1E
100
AcDbEntity
  8
SU
100
AcDbCircle
 10
551.4999999999999
 20
449.2499999999999
 30
0.0
 40
0.6
100
AcDbArc
 50
270.0
 51
90.0
  0
ARC
  5
357
330
1E
100
AcDbEntity
  8
SU
100
AcDbCircle
 10
551.4999999999999
 20
456.25
 30
0.0
 40
0.6
100
AcDbArc
 50
90.0
 51
270.0
  0
ARC
  5
358
330
1E
100
AcDbEntity
  8
SU
100
AcDbCircle
 10
551.4999999999999
 20
456.25
 30
0.0
 40
0.6
100
AcDbArc
 50
270.0
 51
90.0
  0
ARC
  5
359
330
1E
100
AcDbEntity
  8
SU
100
AcDbCircle
 10
213.5
 20
93.25000000000001
 30
0.0
 40
0.6
100
AcDbArc
 50
180.0
 51
0.0
  0
ARC
  5
35A
330
1E
100
AcDbEntity
  8
SU
100
AcDbCircle
 10
213.5
 20
93.25000000000001
 30
0.0
 40
0.6
100
AcDbArc
 50
0.0
 51
180.0
  0
ARC
  5
35B
330
1E
100
AcDbEntity
  8
SU
100
AcDbCircle
 10
170.5
 20
93.25000000000001
 30
0.0
 40
0.6
100
AcDbArc
 50
0.0
 51
180.0
  0
ARC
  5
35C
330
1E
100
AcDbEntity
  8
SU
100
AcDbCircle
 10
170.5
 20
93.25000000000001
 30
0.0
 40
0.6
100
AcDbArc
 50
180.0
 51
0.0
  0
ARC
  5
35D
330
1E
100
AcDbEntity
  8
SU
100
AcDbCircle
 10
208.4999999999999
 20
93.25000000000001
 30
0.0
 40
0.6
100
AcDbArc
 50
180.0
 51
0.0
  0
ARC
  5
35E
330
1E
100
AcDbEntity
  8
SU
100
AcDbCircle
 10
208.4999999999999
 20
93.25000000000001
 30
0.0
 40
0.6
100
AcDbArc
 50
0.0
 51
180.0
  0
ARC
  5
35F
330
1E
100
AcDbEntity
  8
SU
100
AcDbCircle
 10
268.5
 20
60.25
 30
0.0
 40
0.6
100
AcDbArc
 50
90.0
 51
270.0
  0
ARC
  5
360
330
1E
100
AcDbEntity
  8
SU
100
AcDbCircle
 10
268.5
 20
60.25
 30
0.0
 40
0.6
100
AcDbArc
 50
270.0
 51
90.0
  0
ARC
  5
361
330
1E
100
AcDbEntity
  8
SU
100
AcDbCircle
 10
268.5
 20
65.04999999999999
 30
0.0
 40
0.6
100
AcDbArc
 50
90.0
 51
270.0
  0
ARC
  5
362
330
1E
100
AcDbEntity
  8
SU
100
AcDbCircle
 10
268.5
 20
65.04999999999999
 30
0.0
 40
0.6
100
AcDbArc
 50
270.0
 51
90.0
  0
ARC
  5
363
330
1E
100
AcDbEntity
  8
SU
100
AcDbCircle
 10
268.5
 20
73.25
 30
0.0
 40
0.6
100
AcDbArc
 50
90.0
 51
270.0
  0
ARC
  5
364
330
1E
100
AcDbEntity
  8
SU
100
AcDbCircle
 10
268.5
 20
73.25
 30
0.0
 40
0.6
100
AcDbArc
 50
270.0
 51
90.0
  0
ARC
  5
365
330
1E
100
AcDbEntity
  8
SU
100
AcDbCircle
 10
213.5
 20
243.25
 30
0.0
 40
0.6
100
AcDbArc
 50
180.0
 51
0.0
  0
ARC
  5
366
330
1E
100
AcDbEntity
  8
SU
100
AcDbCircle
 10
213.5
 20
243.25
 30
0.0
 40
0.6
100
AcDbArc
 50
0.0
 51
180.0
  0
ARC
  5
367
330
1E
100
AcDbEntity
  8
SU
100
AcDbCircle
 10
170.0
 20
243.25
 30
0.0
 40
0.6
100
AcDbArc
 50
0.0
 51
180.0
  0
ARC
  5
368
330
1E
100
AcDbEntity
  8
SU
100
AcDbCircle
 10
170.0
 20
243.25
 30
0.0
 40
0.6
100
AcDbArc
 50
180.0
 51
0.0
  0
ARC
  5
369
330
1E
100
AcDbEntity
  8
SU
100
AcDbCircle
 10
211.0
 20
243.25
 30
0.0
 40
0.6
100
AcDbArc
 50
180.0
 51
0.0
  0
ARC
  5
36A
330
1E
100
AcDbEntity
  8
SU
100
AcDbCircle
 10
211.0
 20
243.25
 30
0.0
 40
0.6
100
AcDbArc
 50
0.0
 51
180.0
  0
ARC
  5
36B
330
1E
100
AcDbEntity
  8
SU
100
AcDbCircle
 10
213.5
 20
178.2499999999999
 30
0.0
 40
0.6
100
AcDbArc
 50
180.0
 51
0.0
  0
ARC
  5
36C
330
1E
100
AcDbEntity
  8
SU
100
AcDbCircle
 10
213.5
 20
178.2499999999999
 30
0.0
 40
0.6
100
AcDbArc
 50
0.0
 51
180.0
  0
ARC
  5
36D
330
1E
100
AcDbEntity
  8
SU
100
AcDbCircle
 10
178.0
 20
178.2499999999999
 30
0.0
 40
0.6
100
AcDbArc
 50
0.0
 51
180.0
  0
ARC
  5
36E
330
1E
100
AcDbEntity
  8
SU
100
AcDbCircle
 10
178.0
 20
178.2499999999999
 30
0.0
 40
0.6
100
AcDbArc
 50
180.0
 51
0.0
  0
ARC
  5
36F
330
1E
100
AcDbEntity
  8
SU
100
AcDbCircle
 10
203.0
 20
178.2499999999999
 30
0.0
 40
0.6
100
AcDbArc
 50
180.0
 51
0.0
  0
ARC
  5
370
330
1E
100
AcDbEntity
  8
SU
100
AcDbCircle
 10
203.0
 20
178.2499999999999
 30
0.0
 40
0.6
100
AcDbArc
 50
0.0
 51
180.0
  0
ARC
  5
371
330
1E
100
AcDbEntity
  8
SU
100
AcDbCircle
 10
268.5
 20
210.25
 30
0.0
 40
0.6
100
AcDbArc
 50
270.0
 51
90.0
  0
ARC
  5
372
330
1E
100
AcDbEntity
  8
SU
100
AcDbCircle
 10
268.5
 20
210.25
 30
0.0
 40
0.6
100
AcDbArc
 50
90.0
 51
270.0
  0
ARC
  5
373
330
1E
100
AcDbEntity
  8
SU
100
AcDbCircle
 10
268.5
 20
212.25
 30
0.0
 40
0.6
100
AcDbArc
 50
90.0
 51
270.0
  0
ARC
  5
374
330
1E
100
AcDbEntity
  8
SU
100
AcDbCircle
 10
268.5
 20
212.25
 30
0.0
 40
0.6
100
AcDbArc
 50
270.0
 51
90.0
  0
ARC
  5
375
330
1E
100
AcDbEntity
  8
SU
100
AcDbCircle
 10
268.5
 20
440.2499999999999
 30
0.0
 40
0.6
100
AcDbArc
 50
270.0
 51
90.0
  0
ARC
  5
376
330
1E
100
AcDbEntity
  8
SU
100
AcDbCircle
 10
268.5
 20
440.2499999999999
 30
0.0
 40
0.6
100
AcDbArc
 50
90.0
 51
270.0
  0
ARC
  5
377
330
1E
100
AcDbEntity
  8
SU
100
AcDbCircle
 10
268.5
 20
416.2499999999999
 30
0.0
 40
0.6
100
AcDbArc
 50
270.0
 51
90.0
  0
ARC
  5
378
330
1E
100
AcDbEntity
  8
SU
100
AcDbCircle
 10
268.5
 20
416.2499999999999
 30
0.0
 40
0.6
100
AcDbArc
 50
90.0
 51
270.0
  0
ARC
  5
379
330
1E
100
AcDbEntity
  8
SU
100
AcDbCircle
 10
268.5
 20
220.25
 30
0.0
 40
0.6
100
AcDbArc
 50
90.0
 51
270.0
  0
ARC
  5
37A
330
1E
100
AcDbEntity
  8
SU
100
AcDbCircle
 10
268.5
 20
220.25
 30
0.0
 40
0.6
100
AcDbArc
 50
270.0
 51
90.0
  0
ARC
  5
37B
330
1E
100
AcDbEntity
  8
SU
100
AcDbCircle
 10
268.5
 20
413.25
 30
0.0
 40
0.6
100
AcDbArc
 50
270.0
 51
90.0
  0
ARC
  5
37C
330
1E
100
AcDbEntity
  8
SU
100
AcDbCircle
 10
268.5
 20
413.25
 30
0.0
 40
0.6
100
AcDbArc
 50
90.0
 51
270.0
  0
ARC
  5
37D
330
1E
100
AcDbEntity
  8
SU
100
AcDbCircle
 10
80.5
 20
404.25
 30
0.0
 40
0.6
100
AcDbArc
 50
90.0
 51
270.0
  0
ARC
  5
37E
330
1E
100
AcDbEntity
  8
SU
100
AcDbCircle
 10
80.5
 20
404.25
 30
0.0
 40
0.6
100
AcDbArc
 50
270.0
 51
90.0
  0
ARC
  5
37F
330
1E
100
AcDbEntity
  8
SU
100
AcDbCircle
 10
80.5
 20
440.2499999999999
 30
0.0
 40
0.6
100
AcDbArc
 50
270.0
 51
90.0
  0
ARC
  5
380
330
1E
100
AcDbEntity
  8
SU
100
AcDbCircle
 10
80.5
 20
440.2499999999999
 30
0.0
 40
0.6
100
AcDbArc
 50
90.0
 51
270.0
  0
ARC
  5
381
330
1E
100
AcDbEntity
  8
SU
100
AcDbCircle
 10
80.5
 20
416.2499999999999
 30
0.0
 40
0.6
100
AcDbArc
 50
90.0
 51
270.0
  0
ARC
  5
382
330
1E
100
AcDbEntity
  8
SU
100
AcDbCircle
 10
80.5
 20
416.2499999999999
 30
0.0
 40
0.6
100
AcDbArc
 50
270.0
 51
90.0
  0
LINE
  5
383
330
1E
100
AcDbEntity
  8
KI1
100
AcDbLine
 10
485.5
 20
260.7499999999999
 30
0.0
 11
581.5
 21
260.7499999999999
 31
0.0
1001
GENIUS_GENREC_14
1002
{
1000
PYDIR
1011
485.5
1021
227.7499999999999
1031
0.0
1002
}
1002
{
1000
PXDIR
1011
679.4999999999999
1021
260.7499999999999
1031
0.0
1002
}
1002
{
1000
PORI
1011
485.5
1021
260.7499999999999
1031
0.0
1002
}
1002
{
1000
PINS
1011
485.5
1021
260.7499999999999
1031
0.0
1002
}
1002
{
1000
PINS2
1011
679.4999999999999
1021
227.7499999999999
1031
0.0
1002
}
1002
{
1000
C
1070
     1
1002
}
1001
GENIUS_GENOBJ-N-REC_13
1002
{
1000
OWNER
1000
GEN
1002
}
1001
GENIUS_GENODEF_13
1002
{
1000
HIER
1070
     0
1002
}
1002
{
1000
MANEDIT
1070
     0
1002
}
1002
{
1000
NOSEL
1070
     0
1002
}
1002
{
1000
BEHIND
1070
     0
1002
}
1002
{
1000
OTHER
1070
     0
1002
}
1002
{
1000
REACTOR
1002
}
  0
LINE
  5
384
330
1E
100
AcDbEntity
  8
KI1
100
AcDbLine
 10
583.4999999999999
 20
260.7499999999999
 30
0.0
 11
679.4999999999999
 21
260.7499999999999
 31
0.0
1001
GENIUS_GENREC_14
1002
{
1000
PYDIR
1011
485.5
1021
227.7499999999999
1031
0.0
1002
}
1002
{
1000
PXDIR
1011
679.4999999999999
1021
260.7499999999999
1031
0.0
1002
}
1002
{
1000
PORI
1011
485.5
1021
260.7499999999999
1031
0.0
1002
}
1002
{
1000
PINS
1011
485.5
1021
260.7499999999999
1031
0.0
1002
}
1002
{
1000
PINS2
1011
679.4999999999999
1021
227.7499999999999
1031
0.0
1002
}
1002
{
1000
C
1070
     1
1002
}
1001
GENIUS_GENOBJ-N-REC_13
1002
{
1000
OWNER
1000
GEN
1002
}
1001
GENIUS_GENODEF_13
1002
{
1000
HIER
1070
     0
1002
}
1002
{
1000
MANEDIT
1070
     0
1002
}
1002
{
1000
NOSEL
1070
     0
1002
}
1002
{
1000
BEHIND
1070
     0
1002
}
1002
{
1000
OTHER
1070
     0
1002
}
1002
{
1000
REACTOR
1002
}
  0
LINE
  5
385
330
1E
100
AcDbEntity
  8
KI1
100
AcDbLine
 10
679.4999999999999
 20
260.7499999999999
 30
0.0
 11
679.4999999999999
 21
227.7499999999999
 31
0.0
1001
GENIUS_GENREC_14
1002
{
1000
PYDIR
1011
485.5
1021
227.7499999999999
1031
0.0
1002
}
1002
{
1000
PXDIR
1011
679.4999999999999
1021
260.7499999999999
1031
0.0
1002
}
1002
{
1000
PORI
1011
485.5
1021
260.7499999999999
1031
0.0
1002
}
1002
{
1000
PINS
1011
485.5
1021
260.7499999999999
1031
0.0
1002
}
1002
{
1000
PINS2
1011
679.4999999999999
1021
227.7499999999999
1031
0.0
1002
}
1002
{
1000
C
1070
     1
1002
}
1001
GENIUS_GENOBJ-N-REC_13
1002
{
1000
OWNER
1000
GEN
1002
}
1001
GENIUS_GENODEF_13
1002
{
1000
HIER
1070
     0
1002
}
1002
{
1000
MANEDIT
1070
     0
1002
}
1002
{
1000
NOSEL
1070
     0
1002
}
1002
{
1000
BEHIND
1070
     0
1002
}
1002
{
1000
OTHER
1070
     0
1002
}
1002
{
1000
REACTOR
1002
}
  0
LINE
  5
386
330
1E
100
AcDbEntity
  8
KI1
100
AcDbLine
 10
679.4999999999999
 20
227.7499999999999
 30
0.0
 11
583.4999999999999
 21
227.7499999999999
 31
0.0
1001
GENIUS_GENREC_14
1002
{
1000
PYDIR
1011
485.5
1021
227.7499999999999
1031
0.0
1002
}
1002
{
1000
PXDIR
1011
679.4999999999999
1021
260.7499999999999
1031
0.0
1002
}
1002
{
1000
PORI
1011
485.5
1021
260.7499999999999
1031
0.0
1002
}
1002
{
1000
PINS
1011
485.5
1021
260.7499999999999
1031
0.0
1002
}
1002
{
1000
PINS2
1011
679.4999999999999
1021
227.7499999999999
1031
0.0
1002
}
1002
{
1000
C
1070
     1
1002
}
1001
GENIUS_GENOBJ-N-REC_13
1002
{
1000
OWNER
1000
GEN
1002
}
1001
GENIUS_GENODEF_13
1002
{
1000
HIER
1070
     0
1002
}
1002
{
1000
MANEDIT
1070
     0
1002
}
1002
{
1000
NOSEL
1070
     0
1002
}
1002
{
1000
BEHIND
1070
     0
1002
}
1002
{
1000
OTHER
1070
     0
1002
}
1002
{
1000
REACTOR
1002
}
  0
LINE
  5
387
330
1E
100
AcDbEntity
  8
KI1
100
AcDbLine
 10
581.5
 20
227.7499999999999
 30
0.0
 11
485.5
 21
227.7499999999999
 31
0.0
1001
GENIUS_GENREC_14
1002
{
1000
PYDIR
1011
485.5
1021
227.7499999999999
1031
0.0
1002
}
1002
{
1000
PXDIR
1011
679.4999999999999
1021
260.7499999999999
1031
0.0
1002
}
1002
{
1000
PORI
1011
485.5
1021
260.7499999999999
1031
0.0
1002
}
1002
{
1000
PINS
1011
485.5
1021
260.7499999999999
1031
0.0
1002
}
1002
{
1000
PINS2
1011
679.4999999999999
1021
227.7499999999999
1031
0.0
1002
}
1002
{
1000
C
1070
     1
1002
}
1001
GENIUS_GENOBJ-N-REC_13
1002
{
1000
OWNER
1000
GEN
1002
}
1001
GENIUS_GENODEF_13
1002
{
1000
HIER
1070
     0
1002
}
1002
{
1000
MANEDIT
1070
     0
1002
}
1002
{
1000
NOSEL
1070
     0
1002
}
1002
{
1000
BEHIND
1070
     0
1002
}
1002
{
1000
OTHER
1070
     0
1002
}
1002
{
1000
REACTOR
1002
}
  0
LINE
  5
388
330
1E
100
AcDbEntity
  8
KI1
100
AcDbLine
 10
485.5
 20
227.7499999999999
 30
0.0
 11
485.5
 21
260.7499999999999
 31
0.0
1001
GENIUS_GENREC_14
1002
{
1000
PYDIR
1011
485.5
1021
227.7499999999999
1031
0.0
1002
}
1002
{
1000
PXDIR
1011
879.4999999999999
1021
260.7499999999999
1031
0.0
1002
}
1002
{
1000
PORI
1011
485.5
1021
260.7499999999999
1031
0.0
1002
}
1002
{
1000
PINS
1011
485.5
1021
260.7499999999999
1031
0.0
1002
}
1002
{
1000
PINS2
1011
879.4999999999999
1021
227.7499999999999
1031
0.0
1002
}
1002
{
1000
C
1070
     1
1002
}
1001
GENIUS_GENOBJ-N-REC_13
1002
{
1000
OWNER
1000
GEN
1002
}
1001
GENIUS_GENODEF_13
1002
{
1000
HIER
1070
     0
1002
}
1002
{
1000
MANEDIT
1070
     0
1002
}
1002
{
1000
NOSEL
1070
     0
1002
}
1002
{
1000
BEHIND
1070
     0
1002
}
1002
{
1000
OTHER
1070
     0
1002
}
1002
{
1000
REACTOR
1002
}
  0
LINE
  5
389
330
1E
100
AcDbEntity
  8
TE
100
AcDbLine
 10
468.1066019999999
 20
209.643398
 30
0.0
 11
446.893398
 21
230.856602
 31
0.0
  0
LINE
  5
38A
330
1E
100
AcDbEntity
  8
TE
100
AcDbLine
 10
446.89532
 20
209.641476
 30
0.0
 11
468.1046799999999
 21
230.858524
 31
0.0
  0
LINE
  5
38B
330
1E
100
AcDbEntity
  8
TE
100
AcDbLine
 10
718.1066019999999
 20
209.643398
 30
0.0
 11
696.893398
 21
230.856602
 31
0.0
  0
LINE
  5
38C
330
1E
100
AcDbEntity
  8
TE
100
AcDbLine
 10
696.8953199999999
 20
209.641476
 30
0.0
 11
718.10468
 21
230.858524
 31
0.0
  0
LINE
  5
38D
330
1E
100
AcDbEntity
  8
SU
100
AcDbLine
 10
621.0
 20
160.25
 30
0.0
 11
707.5
 21
160.25
 31
0.0
  0
LINE
  5
38E
330
1E
100
AcDbEntity
  8
SU
100
AcDbLine
 10
493.5
 20
260.25
 30
0.0
 11
493.5
 21
157.2499999999999
 31
0.0
  0
LINE
  5
38F
330
1E
100
AcDbEntity
  8
SU
100
AcDbLine
 10
621.0
 20
179.2499999999999
 30
0.0
 11
621.0
 21
157.2499999999999
 31
0.0
  0
LINE
  5
390
330
1E
100
AcDbEntity
  8
SU
100
AcDbLine
 10
493.5
 20
160.25
 30
0.0
 11
621.0
 21
160.25
 31
0.0
  0
LINE
  5
391
330
1E
100
AcDbEntity
  8
SU
100
AcDbLine
 10
683.4999999999999
 20
130.2499999999999
 30
0.0
 11
707.5
 21
130.2499999999999
 31
0.0
  0
LINE
  5
392
330
1E
100
AcDbEntity
  8
SU
100
AcDbLine
 10
683.4999999999999
 20
205.25
 30
0.0
 11
683.4999999999999
 21
127.2499999999999
 31
0.0
  0
LINE
  5
393
330
1E
100
AcDbEntity
  8
SU
100
AcDbLine
 10
679.4999999999999
 20
130.2499999999999
 30
0.0
 11
683.4999999999999
 21
130.2499999999999
 31
0.0
  0
LINE
  5
394
330
1E
100
AcDbEntity
  8
SU
100
AcDbLine
 10
681.5
 20
130.2499999999999
 30
0.0
 11
674.1397459999999
 21
145.25
 31
0.0
  0
LINE
  5
395
330
1E
100
AcDbEntity
  8
SU
100
AcDbLine
 10
674.1397459999999
 20
145.25
 30
0.0
 11
667.3897459999999
 21
145.25
 31
0.0
  0
LINE
  5
396
330
1E
100
AcDbEntity
  8
SU
100
AcDbLine
 10
679.4999999999999
 20
226.75
 30
0.0
 11
679.4999999999999
 21
127.2499999999999
 31
0.0
  0
LINE
  5
397
330
1E
100
AcDbEntity
  8
SU
100
AcDbLine
 10
485.5
 20
130.2499999999999
 30
0.0
 11
679.4999999999999
 21
130.2499999999999
 31
0.0
  0
LINE
  5
398
330
1E
100
AcDbEntity
  8
SU
100
AcDbLine
 10
485.5
 20
226.75
 30
0.0
 11
485.5
 21
127.2499999999999
 31
0.0
  0
LINE
  5
399
330
1E
100
AcDbEntity
  8
SU
100
AcDbLine
 10
481.5
 20
130.2499999999999
 30
0.0
 11
485.5
 21
130.2499999999999
 31
0.0
  0
LINE
  5
39A
330
1E
100
AcDbEntity
  8
SU
100
AcDbLine
 10
483.4999999999999
 20
130.2499999999999
 30
0.0
 11
490.860254
 21
145.25
 31
0.0
  0
LINE
  5
39B
330
1E
100
AcDbEntity
  8
SU
100
AcDbLine
 10
490.860254
 20
145.25
 30
0.0
 11
497.610254
 21
145.25
 31
0.0
  0
LINE
  5
39C
330
1E
100
AcDbEntity
  8
SU
100
AcDbLine
 10
481.5
 20
219.2499999999999
 30
0.0
 11
481.5
 21
127.2499999999999
 31
0.0
  0
LINE
  5
39D
330
1E
100
AcDbEntity
  8
SU
100
AcDbLine
 10
481.5
 20
130.2499999999999
 30
0.0
 11
457.5
 21
130.2499999999999
 31
0.0
  0
LINE
  5
39E
330
1E
100
AcDbEntity
  8
SU
100
AcDbLine
 10
467.4999999999999
 20
121.2499959999999
 30
0.0
 11
467.4999999999999
 21
109.25
 31
0.0
  0
LINE
  5
39F
330
1E
100
AcDbEntity
  8
SU
100
AcDbLine
 10
467.3
 20
121.1299959999999
 30
0.0
 11
467.3
 21
109.37
 31
0.0
  0
LINE
  5
3A0
330
1E
100
AcDbEntity
  8
SU
100
AcDbLine
 10
467.1
 20
121.0099959999999
 30
0.0
 11
467.1
 21
109.4899999999999
 31
0.0
  0
LINE
  5
3A1
330
1E
100
AcDbEntity
  8
SU
100
AcDbLine
 10
466.9000009999999
 20
120.889997
 30
0.0
 11
466.9000009999999
 21
109.61
 31
0.0
  0
LINE
  5
3A2
330
1E
100
AcDbEntity
  8
SU
100
AcDbLine
 10
466.7000009999999
 20
120.7699969999999
 30
0.0
 11
466.7000009999999
 21
109.73
 31
0.0
  0
LINE
  5
3A3
330
1E
100
AcDbEntity
  8
SU
100
AcDbLine
 10
466.5000009999999
 20
120.649997
 30
0.0
 11
466.5000009999999
 21
109.849999
 31
0.0
  0
LINE
  5
3A4
330
1E
100
AcDbEntity
  8
SU
100
AcDbLine
 10
466.3000009999999
 20
120.5299969999999
 30
0.0
 11
466.3000009999999
 21
109.9699989999999
 31
0.0
  0
LINE
  5
3A5
330
1E
100
AcDbEntity
  8
SU
100
AcDbLine
 10
466.1000009999999
 20
120.409998
 30
0.0
 11
466.1000009999999
 21
110.089999
 31
0.0
  0
LINE
  5
3A6
330
1E
100
AcDbEntity
  8
SU
100
AcDbLine
 10
465.9000009999999
 20
120.2899979999999
 30
0.0
 11
465.9000009999999
 21
110.2099989999999
 31
0.0
  0
LINE
  5
3A7
330
1E
100
AcDbEntity
  8
SU
100
AcDbLine
 10
465.7000019999999
 20
120.1699979999999
 30
0.0
 11
465.7000019999999
 21
110.329999
 31
0.0
  0
LINE
  5
3A8
330
1E
100
AcDbEntity
  8
SU
100
AcDbLine
 10
465.5000019999999
 20
120.049998
 30
0.0
 11
465.5000019999999
 21
110.449999
 31
0.0
  0
LINE
  5
3A9
330
1E
100
AcDbEntity
  8
SU
100
AcDbLine
 10
465.3000019999999
 20
119.9299979999999
 30
0.0
 11
465.3000019999999
 21
110.5699989999999
 31
0.0
  0
LINE
  5
3AA
330
1E
100
AcDbEntity
  8
SU
100
AcDbLine
 10
465.1000019999999
 20
119.809999
 30
0.0
 11
465.1000019999999
 21
110.689999
 31
0.0
  0
LINE
  5
3AB
330
1E
100
AcDbEntity
  8
SU
100
AcDbLine
 10
464.9000019999999
 20
119.689999
 30
0.0
 11
464.9000019999999
 21
110.809999
 31
0.0
  0
LINE
  5
3AC
330
1E
100
AcDbEntity
  8
SU
100
AcDbLine
 10
464.500003
 20
119.449999
 30
0.0
 11
464.500003
 21
111.0499979999999
 31
0.0
  0
LINE
  5
3AD
330
1E
100
AcDbEntity
  8
SU
100
AcDbLine
 10
464.700003
 20
119.569999
 30
0.0
 11
464.700003
 21
110.929998
 31
0.0
  0
LINE
  5
3AE
330
1E
100
AcDbEntity
  8
SU
100
AcDbLine
 10
463.3000039999999
 20
118.73
 30
0.0
 11
463.3000039999999
 21
111.769998
 31
0.0
  0
LINE
  5
3AF
330
1E
100
AcDbEntity
  8
SU
100
AcDbLine
 10
463.1000039999999
 20
118.610001
 30
0.0
 11
463.1000039999999
 21
111.8899979999999
 31
0.0
  0
LINE
  5
3B0
330
1E
100
AcDbEntity
  8
SU
100
AcDbLine
 10
462.900004
 20
118.4900009999999
 30
0.0
 11
462.900004
 21
112.009997
 31
0.0
  0
LINE
  5
3B1
330
1E
100
AcDbEntity
  8
SU
100
AcDbLine
 10
462.7000049999999
 20
118.370001
 30
0.0
 11
462.7000049999999
 21
112.129997
 31
0.0
  0
LINE
  5
3B2
330
1E
100
AcDbEntity
  8
SU
100
AcDbLine
 10
462.5000049999999
 20
118.250001
 30
0.0
 11
462.5000049999999
 21
112.249997
 31
0.0
  0
LINE
  5
3B3
330
1E
100
AcDbEntity
  8
SU
100
AcDbLine
 10
462.3000049999999
 20
118.130001
 30
0.0
 11
462.3000049999999
 21
112.369997
 31
0.0
  0
LINE
  5
3B4
330
1E
100
AcDbEntity
  8
SU
100
AcDbLine
 10
462.1000049999999
 20
118.010001
 30
0.0
 11
462.1000049999999
 21
112.4899969999999
 31
0.0
  0
LINE
  5
3B5
330
1E
100
AcDbEntity
  8
SU
100
AcDbLine
 10
461.9000049999999
 20
117.8900009999999
 30
0.0
 11
461.9000049999999
 21
112.609997
 31
0.0
  0
LINE
  5
3B6
330
1E
100
AcDbEntity
  8
SU
100
AcDbLine
 10
461.7000049999999
 20
117.770001
 30
0.0
 11
461.7000049999999
 21
112.7299969999999
 31
0.0
  0
LINE
  5
3B7
330
1E
100
AcDbEntity
  8
SU
100
AcDbLine
 10
461.5000059999999
 20
117.6500019999999
 30
0.0
 11
461.5000059999999
 21
112.849997
 31
0.0
  0
LINE
  5
3B8
330
1E
100
AcDbEntity
  8
SU
100
AcDbLine
 10
461.3000059999999
 20
117.5300019999999
 30
0.0
 11
461.3000059999999
 21
112.9699969999999
 31
0.0
  0
LINE
  5
3B9
330
1E
100
AcDbEntity
  8
SU
100
AcDbLine
 10
461.1000059999999
 20
117.4100029999999
 30
0.0
 11
461.1000059999999
 21
113.089996
 31
0.0
  0
LINE
  5
3BA
330
1E
100
AcDbEntity
  8
SU
100
AcDbLine
 10
460.9000059999999
 20
117.290003
 30
0.0
 11
460.9000059999999
 21
113.2099959999999
 31
0.0
  0
LINE
  5
3BB
330
1E
100
AcDbEntity
  8
SU
100
AcDbLine
 10
460.7000059999999
 20
117.170003
 30
0.0
 11
460.7000059999999
 21
113.3299959999999
 31
0.0
  0
LINE
  5
3BC
330
1E
100
AcDbEntity
  8
SU
100
AcDbLine
 10
460.500007
 20
117.050003
 30
0.0
 11
460.500007
 21
113.449996
 31
0.0
  0
LINE
  5
3BD
330
1E
100
AcDbEntity
  8
SU
100
AcDbLine
 10
460.300007
 20
116.930003
 30
0.0
 11
460.300007
 21
113.5699959999999
 31
0.0
  0
LINE
  5
3BE
330
1E
100
AcDbEntity
  8
SU
100
AcDbLine
 10
460.100007
 20
116.810003
 30
0.0
 11
460.100007
 21
113.689996
 31
0.0
  0
LINE
  5
3BF
330
1E
100
AcDbEntity
  8
SU
100
AcDbLine
 10
459.900007
 20
116.690003
 30
0.0
 11
459.900007
 21
113.8099959999999
 31
0.0
  0
LINE
  5
3C0
330
1E
100
AcDbEntity
  8
SU
100
AcDbLine
 10
459.500008
 20
116.450004
 30
0.0
 11
459.500008
 21
114.0499949999999
 31
0.0
  0
LINE
  5
3C1
330
1E
100
AcDbEntity
  8
SU
100
AcDbLine
 10
459.7000069999999
 20
116.5700039999999
 30
0.0
 11
459.7000069999999
 21
113.929996
 31
0.0
  0
LINE
  5
3C2
330
1E
100
AcDbEntity
  8
SU
100
AcDbLine
 10
459.300008
 20
116.3300039999999
 30
0.0
 11
459.300008
 21
114.169995
 31
0.0
  0
LINE
  5
3C3
330
1E
100
AcDbEntity
  8
SU
100
AcDbLine
 10
459.1000079999999
 20
116.210004
 30
0.0
 11
459.1000079999999
 21
114.2899949999999
 31
0.0
  0
LINE
  5
3C4
330
1E
100
AcDbEntity
  8
SU
100
AcDbLine
 10
458.9000079999999
 20
116.090004
 30
0.0
 11
458.9000079999999
 21
114.4099949999999
 31
0.0
  0
LINE
  5
3C5
330
1E
100
AcDbEntity
  8
SU
100
AcDbLine
 10
458.700008
 20
115.970005
 30
0.0
 11
458.700008
 21
114.529995
 31
0.0
  0
LINE
  5
3C6
330
1E
100
AcDbEntity
  8
SU
100
AcDbLine
 10
458.500009
 20
115.850005
 30
0.0
 11
458.500009
 21
114.6499949999999
 31
0.0
  0
LINE
  5
3C7
330
1E
100
AcDbEntity
  8
SU
100
AcDbLine
 10
458.1000089999999
 20
115.610003
 30
0.0
 11
458.1000089999999
 21
114.889995
 31
0.0
  0
LINE
  5
3C8
330
1E
100
AcDbEntity
  8
SU
100
AcDbLine
 10
458.3000089999999
 20
115.730005
 30
0.0
 11
458.3000089999999
 21
114.769995
 31
0.0
  0
LINE
  5
3C9
330
1E
100
AcDbEntity
  8
SU
100
AcDbLine
 10
457.900009
 20
115.490003
 30
0.0
 11
457.900009
 21
115.0099949999999
 31
0.0
  0
LINE
  5
3CA
330
1E
100
AcDbEntity
  8
SU
100
AcDbLine
 10
457.499996
 20
115.2500019999999
 30
0.0
 11
467.4999999999999
 21
109.25
 31
0.0
  0
LINE
  5
3CB
330
1E
100
AcDbEntity
  8
SU
100
AcDbLine
 10
457.700012
 20
115.370008
 30
0.0
 11
457.700012
 21
115.1299919999999
 31
0.0
  0
LINE
  5
3CC
330
1E
100
AcDbEntity
  8
SU
100
AcDbLine
 10
457.5
 20
115.25
 30
0.0
 11
467.4999999999999
 21
121.2499959999999
 31
0.0
  0
LINE
  5
3CD
330
1E
100
AcDbEntity
  8
SU
100
AcDbLine
 10
463.500004
 20
118.8499999999999
 30
0.0
 11
463.500004
 21
111.6499979999999
 31
0.0
  0
LINE
  5
3CE
330
1E
100
AcDbEntity
  8
SU
100
AcDbLine
 10
463.700004
 20
118.9699999999999
 30
0.0
 11
463.700004
 21
111.5299979999999
 31
0.0
  0
LINE
  5
3CF
330
1E
100
AcDbEntity
  8
SU
100
AcDbLine
 10
463.900003
 20
119.089999
 30
0.0
 11
463.900003
 21
111.4099979999999
 31
0.0
  0
LINE
  5
3D0
330
1E
100
AcDbEntity
  8
SU
100
AcDbLine
 10
464.1000029999999
 20
119.2099989999999
 30
0.0
 11
464.1000029999999
 21
111.2899979999999
 31
0.0
  0
LINE
  5
3D1
330
1E
100
AcDbEntity
  8
SU
100
AcDbLine
 10
464.300003
 20
119.329999
 30
0.0
 11
464.300003
 21
111.169998
 31
0.0
  0
LINE
  5
3D2
330
1E
100
AcDbEntity
  8
SU
100
AcDbLine
 10
697.5
 20
121.2499959999999
 30
0.0
 11
697.5
 21
109.25
 31
0.0
  0
LINE
  5
3D3
330
1E
100
AcDbEntity
  8
SU
100
AcDbLine
 10
697.7
 20
121.1299959999999
 30
0.0
 11
697.7
 21
109.37
 31
0.0
  0
LINE
  5
3D4
330
1E
100
AcDbEntity
  8
SU
100
AcDbLine
 10
697.9
 20
121.0099959999999
 30
0.0
 11
697.9
 21
109.4899999999999
 31
0.0
  0
LINE
  5
3D5
330
1E
100
AcDbEntity
  8
SU
100
AcDbLine
 10
698.099999
 20
120.889997
 30
0.0
 11
698.099999
 21
109.61
 31
0.0
  0
LINE
  5
3D6
330
1E
100
AcDbEntity
  8
SU
100
AcDbLine
 10
698.299999
 20
120.7699969999999
 30
0.0
 11
698.299999
 21
109.73
 31
0.0
  0
LINE
  5
3D7
330
1E
100
AcDbEntity
  8
SU
100
AcDbLine
 10
698.499999
 20
120.649997
 30
0.0
 11
698.499999
 21
109.849999
 31
0.0
  0
LINE
  5
3D8
330
1E
100
AcDbEntity
  8
SU
100
AcDbLine
 10
698.6999990000001
 20
120.5299969999999
 30
0.0
 11
698.6999990000001
 21
109.9699989999999
 31
0.0
  0
LINE
  5
3D9
330
1E
100
AcDbEntity
  8
SU
100
AcDbLine
 10
698.8999989999999
 20
120.409998
 30
0.0
 11
698.8999989999999
 21
110.089999
 31
0.0
  0
LINE
  5
3DA
330
1E
100
AcDbEntity
  8
SU
100
AcDbLine
 10
699.099998
 20
120.2899979999999
 30
0.0
 11
699.099998
 21
110.2099989999999
 31
0.0
  0
LINE
  5
3DB
330
1E
100
AcDbEntity
  8
SU
100
AcDbLine
 10
699.299998
 20
120.1699979999999
 30
0.0
 11
699.299998
 21
110.329999
 31
0.0
  0
LINE
  5
3DC
330
1E
100
AcDbEntity
  8
SU
100
AcDbLine
 10
699.499998
 20
120.049998
 30
0.0
 11
699.499998
 21
110.449999
 31
0.0
  0
LINE
  5
3DD
330
1E
100
AcDbEntity
  8
SU
100
AcDbLine
 10
699.699998
 20
119.9299979999999
 30
0.0
 11
699.699998
 21
110.5699989999999
 31
0.0
  0
LINE
  5
3DE
330
1E
100
AcDbEntity
  8
SU
100
AcDbLine
 10
699.899998
 20
119.809999
 30
0.0
 11
699.899998
 21
110.689999
 31
0.0
  0
LINE
  5
3DF
330
1E
100
AcDbEntity
  8
SU
100
AcDbLine
 10
700.099997
 20
119.689999
 30
0.0
 11
700.099997
 21
110.809999
 31
0.0
  0
LINE
  5
3E0
330
1E
100
AcDbEntity
  8
SU
100
AcDbLine
 10
700.499997
 20
119.449999
 30
0.0
 11
700.499997
 21
111.0499979999999
 31
0.0
  0
LINE
  5
3E1
330
1E
100
AcDbEntity
  8
SU
100
AcDbLine
 10
700.2999969999999
 20
119.569999
 30
0.0
 11
700.2999969999999
 21
110.929998
 31
0.0
  0
LINE
  5
3E2
330
1E
100
AcDbEntity
  8
SU
100
AcDbLine
 10
701.6999959999999
 20
118.73
 30
0.0
 11
701.6999959999999
 21
111.769998
 31
0.0
  0
LINE
  5
3E3
330
1E
100
AcDbEntity
  8
SU
100
AcDbLine
 10
701.899996
 20
118.610001
 30
0.0
 11
701.899996
 21
111.8899979999999
 31
0.0
  0
LINE
  5
3E4
330
1E
100
AcDbEntity
  8
SU
100
AcDbLine
 10
702.099996
 20
118.4900009999999
 30
0.0
 11
702.099996
 21
112.009997
 31
0.0
  0
LINE
  5
3E5
330
1E
100
AcDbEntity
  8
SU
100
AcDbLine
 10
702.2999949999999
 20
118.370001
 30
0.0
 11
702.2999949999999
 21
112.129997
 31
0.0
  0
LINE
  5
3E6
330
1E
100
AcDbEntity
  8
SU
100
AcDbLine
 10
702.499995
 20
118.250001
 30
0.0
 11
702.499995
 21
112.249997
 31
0.0
  0
LINE
  5
3E7
330
1E
100
AcDbEntity
  8
SU
100
AcDbLine
 10
702.699995
 20
118.130001
 30
0.0
 11
702.699995
 21
112.369997
 31
0.0
  0
LINE
  5
3E8
330
1E
100
AcDbEntity
  8
SU
100
AcDbLine
 10
702.899995
 20
118.010001
 30
0.0
 11
702.899995
 21
112.4899969999999
 31
0.0
  0
LINE
  5
3E9
330
1E
100
AcDbEntity
  8
SU
100
AcDbLine
 10
703.099995
 20
117.8900009999999
 30
0.0
 11
703.099995
 21
112.609997
 31
0.0
  0
LINE
  5
3EA
330
1E
100
AcDbEntity
  8
SU
100
AcDbLine
 10
703.299994
 20
117.770001
 30
0.0
 11
703.299994
 21
112.7299969999999
 31
0.0
  0
LINE
  5
3EB
330
1E
100
AcDbEntity
  8
SU
100
AcDbLine
 10
703.499994
 20
117.6500019999999
 30
0.0
 11
703.499994
 21
112.849997
 31
0.0
  0
LINE
  5
3EC
330
1E
100
AcDbEntity
  8
SU
100
AcDbLine
 10
703.6999940000001
 20
117.5300019999999
 30
0.0
 11
703.6999940000001
 21
112.9699969999999
 31
0.0
  0
LINE
  5
3ED
330
1E
100
AcDbEntity
  8
SU
100
AcDbLine
 10
703.899994
 20
117.4100029999999
 30
0.0
 11
703.899994
 21
113.089996
 31
0.0
  0
LINE
  5
3EE
330
1E
100
AcDbEntity
  8
SU
100
AcDbLine
 10
704.099994
 20
117.290003
 30
0.0
 11
704.099994
 21
113.2099959999999
 31
0.0
  0
LINE
  5
3EF
330
1E
100
AcDbEntity
  8
SU
100
AcDbLine
 10
704.2999929999999
 20
117.170003
 30
0.0
 11
704.2999929999999
 21
113.3299959999999
 31
0.0
  0
LINE
  5
3F0
330
1E
100
AcDbEntity
  8
SU
100
AcDbLine
 10
704.499993
 20
117.050003
 30
0.0
 11
704.499993
 21
113.449996
 31
0.0
  0
LINE
  5
3F1
330
1E
100
AcDbEntity
  8
SU
100
AcDbLine
 10
704.6999929999999
 20
116.930003
 30
0.0
 11
704.6999929999999
 21
113.5699959999999
 31
0.0
  0
LINE
  5
3F2
330
1E
100
AcDbEntity
  8
SU
100
AcDbLine
 10
704.8999929999999
 20
116.810003
 30
0.0
 11
704.8999929999999
 21
113.689996
 31
0.0
  0
LINE
  5
3F3
330
1E
100
AcDbEntity
  8
SU
100
AcDbLine
 10
705.0999929999999
 20
116.690003
 30
0.0
 11
705.0999929999999
 21
113.8099959999999
 31
0.0
  0
LINE
  5
3F4
330
1E
100
AcDbEntity
  8
SU
100
AcDbLine
 10
705.499992
 20
116.450004
 30
0.0
 11
705.499992
 21
114.0499949999999
 31
0.0
  0
LINE
  5
3F5
330
1E
100
AcDbEntity
  8
SU
100
AcDbLine
 10
705.2999929999999
 20
116.5700039999999
 30
0.0
 11
705.2999929999999
 21
113.929996
 31
0.0
  0
LINE
  5
3F6
330
1E
100
AcDbEntity
  8
SU
100
AcDbLine
 10
705.6999919999999
 20
116.3300039999999
 30
0.0
 11
705.6999919999999
 21
114.169995
 31
0.0
  0
LINE
  5
3F7
330
1E
100
AcDbEntity
  8
SU
100
AcDbLine
 10
705.8999919999999
 20
116.210004
 30
0.0
 11
705.8999919999999
 21
114.2899949999999
 31
0.0
  0
LINE
  5
3F8
330
1E
100
AcDbEntity
  8
SU
100
AcDbLine
 10
706.099992
 20
116.090004
 30
0.0
 11
706.099992
 21
114.4099949999999
 31
0.0
  0
LINE
  5
3F9
330
1E
100
AcDbEntity
  8
SU
100
AcDbLine
 10
706.299992
 20
115.970005
 30
0.0
 11
706.299992
 21
114.529995
 31
0.0
  0
LINE
  5
3FA
330
1E
100
AcDbEntity
  8
SU
100
AcDbLine
 10
706.499991
 20
115.850005
 30
0.0
 11
706.499991
 21
114.6499949999999
 31
0.0
  0
LINE
  5
3FB
330
1E
100
AcDbEntity
  8
SU
100
AcDbLine
 10
706.899991
 20
115.610003
 30
0.0
 11
706.899991
 21
114.889995
 31
0.0
  0
LINE
  5
3FC
330
1E
100
AcDbEntity
  8
SU
100
AcDbLine
 10
706.699991
 20
115.730005
 30
0.0
 11
706.699991
 21
114.769995
 31
0.0
  0
LINE
  5
3FD
330
1E
100
AcDbEntity
  8
SU
100
AcDbLine
 10
707.099991
 20
115.490003
 30
0.0
 11
707.099991
 21
115.0099949999999
 31
0.0
  0
LINE
  5
3FE
330
1E
100
AcDbEntity
  8
SU
100
AcDbLine
 10
707.5000039999999
 20
115.2500019999999
 30
0.0
 11
697.5
 21
109.25
 31
0.0
  0
LINE
  5
3FF
330
1E
100
AcDbEntity
  8
SU
100
AcDbLine
 10
707.299988
 20
115.370008
 30
0.0
 11
707.299988
 21
115.1299919999999
 31
0.0
  0
LINE
  5
400
330
1E
100
AcDbEntity
  8
SU
100
AcDbLine
 10
707.5
 20
115.25
 30
0.0
 11
697.5
 21
121.2499959999999
 31
0.0
  0
LINE
  5
401
330
1E
100
AcDbEntity
  8
SU
100
AcDbLine
 10
701.4999959999999
 20
118.8499999999999
 30
0.0
 11
701.4999959999999
 21
111.6499979999999
 31
0.0
  0
LINE
  5
402
330
1E
100
AcDbEntity
  8
SU
100
AcDbLine
 10
701.299996
 20
118.9699999999999
 30
0.0
 11
701.299996
 21
111.5299979999999
 31
0.0
  0
LINE
  5
403
330
1E
100
AcDbEntity
  8
SU
100
AcDbLine
 10
701.099997
 20
119.089999
 30
0.0
 11
701.099997
 21
111.4099979999999
 31
0.0
  0
LINE
  5
404
330
1E
100
AcDbEntity
  8
SU
100
AcDbLine
 10
700.8999969999999
 20
119.2099989999999
 30
0.0
 11
700.8999969999999
 21
111.2899979999999
 31
0.0
  0
LINE
  5
405
330
1E
100
AcDbEntity
  8
SU
100
AcDbLine
 10
700.6999969999999
 20
119.329999
 30
0.0
 11
700.6999969999999
 21
111.169998
 31
0.0
  0
LINE
  5
406
330
1E
100
AcDbEntity
  8
SU
100
AcDbLine
 10
457.5
 20
219.2499999999999
 30
0.0
 11
457.5
 21
112.25
 31
0.0
  0
LINE
  5
407
330
1E
100
AcDbEntity
  8
SU
100
AcDbLine
 10
707.5
 20
219.2499999999999
 30
0.0
 11
707.5
 21
112.25
 31
0.0
  0
LINE
  5
408
330
1E
100
AcDbEntity
  8
SU
100
AcDbLine
 10
457.5
 20
115.25
 30
0.0
 11
707.5
 21
115.25
 31
0.0
  0
LINE
  5
409
330
1E
100
AcDbEntity
  8
SU
100
AcDbLine
 10
526.0
 20
227.7499999999999
 30
0.0
 11
526.0
 21
220.25
 31
0.0
  0
LINE
  5
40A
330
1E
100
AcDbEntity
  8
SU
100
AcDbLine
 10
526.0
 20
220.25
 30
0.0
 11
526.0
 21
200.6766669999999
 31
0.0
  0
LINE
  5
40B
330
1E
100
AcDbEntity
  8
SU
100
AcDbLine
 10
486.5
 20
227.7499999999999
 30
0.0
 11
529.0
 21
227.7499999999999
 31
0.0
  0
LINE
  5
40C
330
1E
100
AcDbEntity
  8
SU
100
AcDbLine
 10
526.0
 20
260.7499999999999
 30
0.0
 11
526.0
 21
227.7499999999999
 31
0.0
  0
LINE
  5
40D
330
1E
100
AcDbEntity
  8
SU
100
AcDbLine
 10
494.5
 20
260.7499999999999
 30
0.0
 11
529.0
 21
260.7499999999999
 31
0.0
  0
LINE
  5
40E
330
1E
100
AcDbEntity
  8
SU
100
AcDbLine
 10
526.0
 20
263.75
 30
0.0
 11
526.0
 21
260.7499999999999
 31
0.0
  0
LINE
  5
40F
330
1E
100
AcDbEntity
  8
SU
100
AcDbLine
 10
526.0
 20
262.25
 30
0.0
 11
511.0
 21
254.889746
 31
0.0
  0
LINE
  5
410
330
1E
100
AcDbEntity
  8
SU
100
AcDbLine
 10
511.0
 20
254.889746
 30
0.0
 11
511.0
 21
248.139746
 31
0.0
  0
LINE
  5
411
330
1E
100
AcDbEntity
  8
SU
100
AcDbLine
 10
494.5
 20
263.75
 30
0.0
 11
529.0
 21
263.75
 31
0.0
  0
LINE
  5
412
330
1E
100
AcDbEntity
  8
SU
100
AcDbLine
 10
526.0
 20
281.7499999999999
 30
0.0
 11
526.0
 21
263.75
 31
0.0
  0
LINE
  5
413
330
1E
100
AcDbEntity
  8
SU
100
AcDbLine
 10
494.5
 20
281.7499999999999
 30
0.0
 11
529.0
 21
281.7499999999999
 31
0.0
  0
LINE
  5
414
330
1E
100
AcDbEntity
  8
SU
100
AcDbLine
 10
526.0
 20
333.25
 30
0.0
 11
526.0
 21
281.7499999999999
 31
0.0
  0
LINE
  5
415
330
1E
100
AcDbEntity
  8
SU
100
AcDbLine
 10
482.5
 20
333.25
 30
0.0
 11
544.0
 21
333.25
 31
0.0
  0
LINE
  5
416
330
1E
100
AcDbEntity
  8
SU
100
AcDbLine
 10
482.5
 20
220.25
 30
0.0
 11
544.0
 21
220.25
 31
0.0
  0
LINE
  5
417
330
1E
100
AcDbEntity
  8
SU
100
AcDbLine
 10
541.0
 20
333.25
 30
0.0
 11
541.0
 21
220.25
 31
0.0
  0
LINE
  5
418
330
1E
100
AcDbEntity
  8
SU
100
AcDbLine
 10
671.4999999999999
 20
282.75
 30
0.0
 11
671.4999999999999
 21
356.25
 31
0.0
  0
LINE
  5
419
330
1E
100
AcDbEntity
  8
SU
100
AcDbLine
 10
683.4999999999999
 20
353.25
 30
0.0
 11
671.4999999999999
 21
353.25
 31
0.0
  0
LINE
  5
41A
330
1E
100
AcDbEntity
  8
SU
100
AcDbLine
 10
671.4999999999999
 20
353.25
 30
0.0
 11
657.689983
 21
353.25
 31
0.0
  0
LINE
  5
41B
330
1E
100
AcDbEntity
  8
SU
100
AcDbLine
 10
707.5
 20
334.25
 30
0.0
 11
707.5
 21
356.25
 31
0.0
  0
LINE
  5
41C
330
1E
100
AcDbEntity
  8
SU
100
AcDbLine
 10
683.4999999999999
 20
334.25
 30
0.0
 11
683.4999999999999
 21
356.25
 31
0.0
  0
LINE
  5
41D
330
1E
100
AcDbEntity
  8
SU
100
AcDbLine
 10
707.5
 20
353.25
 30
0.0
 11
683.4999999999999
 21
353.25
 31
0.0
  0
LINE
  5
41E
330
1E
100
AcDbEntity
  8
SU
100
AcDbLine
 10
493.5
 20
282.75
 30
0.0
 11
493.5
 21
356.25
 31
0.0
  0
LINE
  5
41F
330
1E
100
AcDbEntity
  8
SU
100
AcDbLine
 10
481.5
 20
353.25
 30
0.0
 11
493.5
 21
353.25
 31
0.0
  0
LINE
  5
420
330
1E
100
AcDbEntity
  8
SU
100
AcDbLine
 10
493.5
 20
353.25
 30
0.0
 11
511.278416
 21
353.25
 31
0.0
  0
LINE
  5
421
330
1E
100
AcDbEntity
  8
SU
100
AcDbLine
 10
457.5
 20
334.25
 30
0.0
 11
457.5
 21
356.25
 31
0.0
  0
LINE
  5
422
330
1E
100
AcDbEntity
  8
SU
100
AcDbLine
 10
481.5
 20
334.25
 30
0.0
 11
481.5
 21
356.25
 31
0.0
  0
LINE
  5
423
330
1E
100
AcDbEntity
  8
SU
100
AcDbLine
 10
457.5
 20
353.25
 30
0.0
 11
481.5
 21
353.25
 31
0.0
  0
LINE
  5
424
330
1E
100
AcDbEntity
  8
KI1
100
AcDbLine
 10
481.5
 20
280.750049
 30
0.0
 11
481.5
 21
330.25
 31
0.0
  0
LINE
  5
425
330
1E
100
AcDbEntity
  8
KI1
100
AcDbLine
 10
481.5
 20
223.2499999999999
 30
0.0
 11
481.5
 21
264.7500509999999
 31
0.0
  0
LINE
  5
426
330
1E
100
AcDbEntity
  8
KI1
100
AcDbLine
 10
478.5
 20
333.25
 30
0.0
 11
457.5
 21
333.25
 31
0.0
  0
LINE
  5
427
330
1E
100
AcDbEntity
  8
KI1
100
AcDbLine
 10
457.5
 20
333.25
 30
0.0
 11
457.5
 21
220.25
 31
0.0
  0
LINE
  5
428
330
1E
100
AcDbEntity
  8
KI1
100
AcDbLine
 10
457.5
 20
220.25
 30
0.0
 11
478.5
 21
220.25
 31
0.0
  0
LINE
  5
429
330
1E
100
AcDbEntity
  8
KI1
100
AcDbLine
 10
683.4999999999999
 20
280.750049
 30
0.0
 11
683.4999999999999
 21
330.25
 31
0.0
  0
LINE
  5
42A
330
1E
100
AcDbEntity
  8
KI1
100
AcDbLine
 10
683.4999999999999
 20
223.2499999999999
 30
0.0
 11
683.4999999999999
 21
264.7500509999999
 31
0.0
  0
LINE
  5
42B
330
1E
100
AcDbEntity
  8
KI1
100
AcDbLine
 10
686.5
 20
333.25
 30
0.0
 11
707.5
 21
333.25
 31
0.0
  0
LINE
  5
42C
330
1E
100
AcDbEntity
  8
KI1
100
AcDbLine
 10
707.5
 20
333.25
 30
0.0
 11
707.5
 21
220.25
 31
0.0
  0
LINE
  5
42D
330
1E
100
AcDbEntity
  8
KI1
100
AcDbLine
 10
707.5
 20
220.25
 30
0.0
 11
686.5
 21
220.25
 31
0.0
  0
LINE
  5
42E
330
1E
100
AcDbEntity
  8
PH
100
AcDbLine
 10
623.0
 20
208.25
 30
0.0
 11
654.0
 21
208.25
 31
0.0
  0
LINE
  5
42F
330
1E
100
AcDbEntity
  8
PH
100
AcDbLine
 10
654.0
 20
210.25
 30
0.0
 11
621.0
 21
210.25
 31
0.0
  0
LINE
  5
430
330
1E
100
AcDbEntity
  8
PH
100
AcDbLine
 10
651.25
 20
204.2499999999999
 30
0.0
 11
654.0
 21
204.2499999999999
 31
0.0
  0
LINE
  5
431
330
1E
100
AcDbEntity
  8
KI2
100
AcDbLine
 10
681.1999969999999
 20
260.7499999999999
 30
0.0
 11
681.1999969999999
 21
214.25
 31
0.0
  0
LINE
  5
432
330
1E
100
AcDbEntity
  8
KI2
100
AcDbLine
 10
683.4999999999999
 20
214.25
 30
0.0
 11
683.4999999999999
 21
260.7499999999999
 31
0.0
  0
LINE
  5
433
330
1E
100
AcDbEntity
  8
PH
100
AcDbLine
 10
654.0
 20
204.2499999999999
 30
0.0
 11
654.0
 21
210.25
 31
0.0
  0
LINE
  5
434
330
1E
100
AcDbEntity
  8
KI2
100
AcDbLine
 10
675.4999999999999
 20
215.75
 30
0.0
 11
681.1999969999999
 21
215.75
 31
0.0
  0
ARC
  5
435
330
1E
100
AcDbEntity
  8
KI2
100
AcDbCircle
 10
675.4999999999999
 20
206.25
 30
0.0
 40
9.5
100
AcDbArc
 50
90.00000300000001
 51
0.00001
  0
CIRCLE
  5
436
330
1E
100
AcDbEntity
  8
KI2
100
AcDbCircle
 10
675.0
 20
206.25
 30
0.0
 40
8.0
  0
CIRCLE
  5
437
330
1E
100
AcDbEntity
  8
KI2
100
AcDbCircle
 10
675.4999999999999
 20
206.25
 30
0.0
 40
8.0
  0
LINE
  5
438
330
1E
100
AcDbEntity
  8
PH
100
AcDbLine
 10
667.05125
 20
205.7255419999999
 30
0.0
 11
654.0
 21
205.1488379999999
 31
0.0
  0
ARC
  5
439
330
1E
100
AcDbEntity
  8
PH
100
AcDbCircle
 10
667.0969769999999
 20
208.5302889999999
 30
0.0
 40
0.5
100
AcDbArc
 50
272.530116
 51
351.336934
  0
LINE
  5
43A
330
1E
100
AcDbEntity
  8
PH
100
AcDbLine
 10
654.0
 20
207.451086
 30
0.0
 11
667.119045
 21
208.030785
 31
0.0
  0
LINE
  5
43B
330
1E
100
AcDbEntity
  8
PH
100
AcDbLine
 10
658.965321
 20
207.670491
 30
0.0
 11
659.066853
 21
205.37273
 31
0.0
  0
LINE
  5
43C
330
1E
100
AcDbEntity
  8
KI2
100
AcDbLine
 10
683.4999999999999
 20
206.25
 30
0.0
 11
683.4999999999999
 21
214.25
 31
0.0
  0
LINE
  5
43D
330
1E
100
AcDbEntity
  8
KI2
100
AcDbLine
 10
681.1999969999999
 20
214.25
 30
0.0
 11
681.1999969999999
 21
211.863377
 31
0.0
  0
LINE
  5
43E
330
1E
100
AcDbEntity
  8
KI2
100
AcDbLine
 10
683.4999999999999
 20
206.25
 30
0.0
 11
685.0
 21
206.25
 31
0.0
  0
LINE
  5
43F
330
1E
100
AcDbEntity
  8
KI2
100
AcDbLine
 10
683.4999999999999
 20
214.25
 30
0.0
 11
681.1999969999999
 21
214.25
 31
0.0
  0
LINE
  5
440
330
1E
100
AcDbEntity
  8
KI2
100
AcDbLine
 10
681.1999969999999
 20
215.75
 30
0.0
 11
681.1999969999999
 21
213.849998
 31
0.0
  0
LINE
  5
441
330
1E
100
AcDbEntity
  8
PH
100
AcDbLine
 10
621.0
 20
210.25
 30
0.0
 11
621.0
 21
204.2499999999999
 31
0.0
  0
LINE
  5
442
330
1E
100
AcDbEntity
  8
PH
100
AcDbLine
 10
625.4999999999999
 20
192.25
 30
0.0
 11
649.5
 21
192.25
 31
0.0
  0
LINE
  5
443
330
1E
100
AcDbEntity
  8
PH
100
AcDbLine
 10
649.5
 20
198.25
 30
0.0
 11
649.5
 21
192.25
 31
0.0
  0
LINE
  5
444
330
1E
100
AcDbEntity
  8
PH
100
AcDbLine
 10
651.25
 20
198.25
 30
0.0
 11
649.5
 21
198.25
 31
0.0
  0
LINE
  5
445
330
1E
100
AcDbEntity
  8
PH
100
AcDbLine
 10
651.25
 20
198.25
 30
0.0
 11
651.25
 21
204.2499999999999
 31
0.0
  0
LINE
  5
446
330
1E
100
AcDbEntity
  8
PH
100
AcDbLine
 10
625.4999999999999
 20
198.25
 30
0.0
 11
625.4999999999999
 21
192.25
 31
0.0
  0
LINE
  5
447
330
1E
100
AcDbEntity
  8
PH
100
AcDbLine
 10
623.0
 20
208.25
 30
0.0
 11
623.0
 21
204.2499999999999
 31
0.0
  0
LINE
  5
448
330
1E
100
AcDbEntity
  8
PH
100
AcDbLine
 10
623.7499999999999
 20
204.2499999999999
 30
0.0
 11
623.7499999999999
 21
198.25
 31
0.0
  0
LINE
  5
449
330
1E
100
AcDbEntity
  8
PH
100
AcDbLine
 10
623.7499999999999
 20
198.25
 30
0.0
 11
625.4999999999999
 21
198.25
 31
0.0
  0
LINE
  5
44A
330
1E
100
AcDbEntity
  8
PH
100
AcDbLine
 10
621.0
 20
204.2499999999999
 30
0.0
 11
623.7499999999999
 21
204.2499999999999
 31
0.0
  0
LINE
  5
44B
330
1E
100
AcDbEntity
  8
KI2
100
AcDbLine
 10
683.4999999999999
 20
260.7499999999999
 30
0.0
 11
681.1999969999999
 21
260.7499999999999
 31
0.0
  0
LINE
  5
44C
330
1E
100
AcDbEntity
  8
TS
100
AcDbLine
 10
677.5
 20
258.7499999999999
 30
0.0
 11
677.5
 21
227.7499999999999
 31
0.0
  0
LINE
  5
44D
330
1E
100
AcDbEntity
  8
TS
100
AcDbLine
 10
679.4999999999999
 20
227.7499999999999
 30
0.0
 11
679.4999999999999
 21
260.7499999999999
 31
0.0
  0
LINE
  5
44E
330
1E
100
AcDbEntity
  8
TS
100
AcDbLine
 10
673.5
 20
230.5
 30
0.0
 11
673.5
 21
227.7499999999999
 31
0.0
  0
LINE
  5
44F
330
1E
100
AcDbEntity
  8
TS
100
AcDbLine
 10
673.5
 20
227.7499999999999
 30
0.0
 11
679.4999999999999
 21
227.7499999999999
 31
0.0
  0
LINE
  5
450
330
1E
100
AcDbEntity
  8
KI2
100
AcDbLine
 10
674.975542
 20
214.6987499999999
 30
0.0
 11
674.3988379999999
 21
227.7499999999999
 31
0.0
  0
ARC
  5
451
330
1E
100
AcDbEntity
  8
KI2
100
AcDbCircle
 10
677.7802889999999
 20
214.6530229999999
 30
0.0
 40
0.5
100
AcDbArc
 50
182.530116
 51
261.3369339999999
  0
LINE
  5
452
330
1E
100
AcDbEntity
  8
KI2
100
AcDbLine
 10
676.701086
 20
227.7499999999999
 30
0.0
 11
677.2807849999999
 21
214.6309549999999
 31
0.0
  0
LINE
  5
453
330
1E
100
AcDbEntity
  8
KI2
100
AcDbLine
 10
676.920491
 20
222.784679
 30
0.0
 11
674.6227299999999
 21
222.683147
 31
0.0
  0
LINE
  5
454
330
1E
100
AcDbEntity
  8
TS
100
AcDbLine
 10
679.4999999999999
 20
260.7499999999999
 30
0.0
 11
673.5
 21
260.7499999999999
 31
0.0
  0
LINE
  5
455
330
1E
100
AcDbEntity
  8
TS
100
AcDbLine
 10
661.5
 20
256.25
 30
0.0
 11
661.5
 21
232.25
 31
0.0
  0
LINE
  5
456
330
1E
100
AcDbEntity
  8
TS
100
AcDbLine
 10
667.4999999999999
 20
232.25
 30
0.0
 11
661.5
 21
232.25
 31
0.0
  0
LINE
  5
457
330
1E
100
AcDbEntity
  8
TS
100
AcDbLine
 10
667.4999999999999
 20
230.5
 30
0.0
 11
667.4999999999999
 21
232.25
 31
0.0
  0
LINE
  5
458
330
1E
100
AcDbEntity
  8
TS
100
AcDbLine
 10
667.4999999999999
 20
230.5
 30
0.0
 11
673.5
 21
230.5
 31
0.0
  0
LINE
  5
459
330
1E
100
AcDbEntity
  8
TS
100
AcDbLine
 10
667.4999999999999
 20
256.25
 30
0.0
 11
661.5
 21
256.25
 31
0.0
  0
LINE
  5
45A
330
1E
100
AcDbEntity
  8
TS
100
AcDbLine
 10
677.5
 20
258.7499999999999
 30
0.0
 11
673.5
 21
258.7499999999999
 31
0.0
  0
LINE
  5
45B
330
1E
100
AcDbEntity
  8
TS
100
AcDbLine
 10
673.5
 20
258.0
 30
0.0
 11
667.4999999999999
 21
258.0
 31
0.0
  0
LINE
  5
45C
330
1E
100
AcDbEntity
  8
TS
100
AcDbLine
 10
667.4999999999999
 20
258.0
 30
0.0
 11
667.4999999999999
 21
256.25
 31
0.0
  0
LINE
  5
45D
330
1E
100
AcDbEntity
  8
TS
100
AcDbLine
 10
673.5
 20
260.7499999999999
 30
0.0
 11
673.5
 21
258.0
 31
0.0
  0
LINE
  5
45E
330
1E
100
AcDbEntity
  8
PH
100
AcDbLine
 10
621.0
 20
210.25
 30
0.0
 11
621.0
 21
180.25
 31
0.0
  0
LINE
  5
45F
330
1E
100
AcDbEntity
  8
PH
100
AcDbLine
 10
654.0
 20
180.25
 30
0.0
 11
654.0
 21
210.25
 31
0.0
  0
LINE
  5
460
330
1E
100
AcDbEntity
  8
OS
100
AcDbLine
 10
694.1080809999999
 20
220.25
 30
0.0
 11
683.4999999999999
 21
230.858081
 31
0.0
1001
ACAD
1010
0.0
1020
0.0
1030
0.0
  0
LINE
  5
461
330
1E
100
AcDbEntity
  8
OS
100
AcDbLine
 10
704.0075759999999
 20
220.25
 30
0.0
 11
683.4999999999999
 21
240.7575759999999
 31
0.0
1001
ACAD
1010
0.0
1020
0.0
1030
0.0
  0
LINE
  5
462
330
1E
100
AcDbEntity
  8
OS
100
AcDbLine
 10
707.5
 20
226.6570709999999
 30
0.0
 11
683.4999999999999
 21
250.657071
 31
0.0
1001
ACAD
1010
0.0
1020
0.0
1030
0.0
  0
LINE
  5
463
330
1E
100
AcDbEntity
  8
OS
100
AcDbLine
 10
707.5
 20
236.556566
 30
0.0
 11
683.4999999999999
 21
260.556566
 31
0.0
1001
ACAD
1010
0.0
1020
0.0
1030
0.0
  0
LINE
  5
464
330
1E
100
AcDbEntity
  8
OS
100
AcDbLine
 10
707.5
 20
246.4560609999999
 30
0.0
 11
689.20601
 21
264.7500509999999
 31
0.0
1001
ACAD
1010
0.0
1020
0.0
1030
0.0
  0
LINE
  5
465
330
1E
100
AcDbEntity
  8
OS
100
AcDbLine
 10
707.5
 20
256.3555559999999
 30
0.0
 11
686.5055059999999
 21
277.35005
 31
0.0
1001
ACAD
1010
0.0
1020
0.0
1030
0.0
  0
LINE
  5
466
330
1E
100
AcDbEntity
  8
OS
100
AcDbLine
 10
707.5
 20
266.2550509999999
 30
0.0
 11
683.4999999999999
 21
290.2550509999999
 31
0.0
1001
ACAD
1010
0.0
1020
0.0
1030
0.0
  0
LINE
  5
467
330
1E
100
AcDbEntity
  8
OS
100
AcDbLine
 10
707.5
 20
276.1545459999999
 30
0.0
 11
683.4999999999999
 21
300.1545459999999
 31
0.0
1001
ACAD
1010
0.0
1020
0.0
1030
0.0
  0
LINE
  5
468
330
1E
100
AcDbEntity
  8
OS
100
AcDbLine
 10
707.5
 20
286.054041
 30
0.0
 11
683.4999999999999
 21
310.054041
 31
0.0
1001
ACAD
1010
0.0
1020
0.0
1030
0.0
  0
LINE
  5
469
330
1E
100
AcDbEntity
  8
OS
100
AcDbLine
 10
707.5
 20
295.9535349999999
 30
0.0
 11
683.4999999999999
 21
319.953535
 31
0.0
1001
ACAD
1010
0.0
1020
0.0
1030
0.0
  0
LINE
  5
46A
330
1E
100
AcDbEntity
  8
OS
100
AcDbLine
 10
707.5
 20
305.85303
 30
0.0
 11
683.4999999999999
 21
329.8530299999999
 31
0.0
1001
ACAD
1010
0.0
1020
0.0
1030
0.0
  0
LINE
  5
46B
330
1E
100
AcDbEntity
  8
OS
100
AcDbLine
 10
457.5
 20
305.85303
 30
0.0
 11
481.5
 21
329.8530299999999
 31
0.0
1001
ACAD
1010
0.0
1020
0.0
1030
0.0
  0
LINE
  5
46C
330
1E
100
AcDbEntity
  8
OS
100
AcDbLine
 10
457.5
 20
295.9535349999999
 30
0.0
 11
481.5
 21
319.953535
 31
0.0
1001
ACAD
1010
0.0
1020
0.0
1030
0.0
  0
LINE
  5
46D
330
1E
100
AcDbEntity
  8
OS
100
AcDbLine
 10
457.5
 20
286.054041
 30
0.0
 11
481.5
 21
310.054041
 31
0.0
1001
ACAD
1010
0.0
1020
0.0
1030
0.0
  0
LINE
  5
46E
330
1E
100
AcDbEntity
  8
OS
100
AcDbLine
 10
457.5
 20
276.1545459999999
 30
0.0
 11
481.5
 21
300.1545459999999
 31
0.0
1001
ACAD
1010
0.0
1020
0.0
1030
0.0
  0
LINE
  5
46F
330
1E
100
AcDbEntity
  8
OS
100
AcDbLine
 10
457.5
 20
266.2550509999999
 30
0.0
 11
481.5
 21
290.2550509999999
 31
0.0
1001
ACAD
1010
0.0
1020
0.0
1030
0.0
  0
LINE
  5
470
330
1E
100
AcDbEntity
  8
OS
100
AcDbLine
 10
457.5
 20
256.3555559999999
 30
0.0
 11
478.494494
 21
277.35005
 31
0.0
1001
ACAD
1010
0.0
1020
0.0
1030
0.0
  0
LINE
  5
471
330
1E
100
AcDbEntity
  8
OS
100
AcDbLine
 10
457.5
 20
246.4560609999999
 30
0.0
 11
475.7939900000001
 21
264.7500509999999
 31
0.0
1001
ACAD
1010
0.0
1020
0.0
1030
0.0
  0
LINE
  5
472
330
1E
100
AcDbEntity
  8
OS
100
AcDbLine
 10
457.5
 20
236.556566
 30
0.0
 11
481.5
 21
260.556566
 31
0.0
1001
ACAD
1010
0.0
1020
0.0
1030
0.0
  0
LINE
  5
473
330
1E
100
AcDbEntity
  8
OS
100
AcDbLine
 10
457.5
 20
226.6570709999999
 30
0.0
 11
481.5
 21
250.657071
 31
0.0
1001
ACAD
1010
0.0
1020
0.0
1030
0.0
  0
LINE
  5
474
330
1E
100
AcDbEntity
  8
OS
100
AcDbLine
 10
460.992424
 20
220.25
 30
0.0
 11
481.5
 21
240.7575759999999
 31
0.0
1001
ACAD
1010
0.0
1020
0.0
1030
0.0
  0
LINE
  5
475
330
1E
100
AcDbEntity
  8
OS
100
AcDbLine
 10
470.891919
 20
220.25
 30
0.0
 11
481.5
 21
230.858081
 31
0.0
1001
ACAD
1010
0.0
1020
0.0
1030
0.0
  0
TEXT
  5
476
330
1E
100
AcDbEntity
  8
SU
100
AcDbText
 10
463.828333
 20
354.55
 30
0.0
 40
7.0
  1
24
 41
0.8299999999999998
100
AcDbText
  0
TEXT
  5
477
330
1E
100
AcDbEntity
  8
SU
100
AcDbText
 10
496.114
 20
354.55
 30
0.0
 40
7.0
  1
12
 41
0.8299999999999998
100
AcDbText
  0
TEXT
  5
478
330
1E
100
AcDbEntity
  8
SU
100
AcDbText
 10
689.828333
 20
354.55
 30
0.0
 40
7.0
  1
24
 41
0.8299999999999998
100
AcDbText
  0
TEXT
  5
479
330
1E
100
AcDbEntity
  8
SU
100
AcDbText
 10
656.9674509999999
 20
354.55
 30
0.0
 40
7.0
  1
12
 41
0.8299999999999998
100
AcDbText
  0
TEXT
  5
47A
330
1E
100
AcDbEntity
  8
SU
100
AcDbText
 10
539.7
 20
268.535
 30
0.0
 40
7.0
  1
113
 50
90.0
 41
0.8299999999999998
100
AcDbText
  0
TEXT
  5
47B
330
1E
100
AcDbEntity
  8
SU
100
AcDbText
 10
524.7
 20
297.8166669999999
 30
0.0
 40
7.0
  1
51.5
 50
90.0
 41
0.8299999999999998
100
AcDbText
  0
TEXT
  5
47C
330
1E
100
AcDbEntity
  8
SU
100
AcDbText
 10
524.7
 20
267.0783329999999
 30
0.0
 40
7.0
  1
18
 50
90.0
 41
0.8299999999999998
100
AcDbText
  0
TEXT
  5
47D
330
1E
100
AcDbEntity
  8
SU
100
AcDbText
 10
509.7
 20
248.8864129999999
 30
0.0
 40
7.0
  1
3
 50
90.0
 41
0.8299999999999998
100
AcDbText
  0
TEXT
  5
47E
330
1E
100
AcDbEntity
  8
SU
100
AcDbText
 10
524.7
 20
238.716667
 30
0.0
 40
7.0
  1
33
 50
90.0
 41
0.8299999999999998
100
AcDbText
  0
TEXT
  5
47F
330
1E
100
AcDbEntity
  8
SU
100
AcDbText
 10
524.7
 20
201.1466669999999
 30
0.0
 40
7.0
  1
7.5
 50
90.0
 41
0.8299999999999998
100
AcDbText
  0
TEXT
  5
480
330
1E
100
AcDbEntity
  8
SU
100
AcDbText
 10
577.7571429999999
 20
116.5499999999999
 30
0.0
 40
10.0
  1
W
 41
0.8299999999999998
100
AcDbText
  0
TEXT
  5
481
330
1E
100
AcDbEntity
  8
SU
100
AcDbText
 10
463.828333
 20
131.55
 30
0.0
 40
7.0
  1
24
 41
0.8299999999999998
100
AcDbText
  0
TEXT
  5
482
330
1E
100
AcDbEntity
  8
SU
100
AcDbText
 10
491.330254
 20
146.55
 30
0.0
 40
7.0
  1
4
 41
0.8299999999999998
100
AcDbText
  0
TEXT
  5
483
330
1E
100
AcDbEntity
  8
SU
100
AcDbText
 10
542.023667
 20
131.55
 30
0.0
 40
7.0
  1
ドアW（DW）=W-56
 41
0.8299999999999998
100
AcDbText
  0
TEXT
  5
484
330
1E
100
AcDbEntity
  8
SU
100
AcDbText
 10
667.8597459999999
 20
146.55
 30
0.0
 40
7.0
  1
4
 41
0.8299999999999998
100
AcDbText
  0
TEXT
  5
485
330
1E
100
AcDbEntity
  8
SU
100
AcDbText
 10
689.828333
 20
131.55
 30
0.0
 40
7.0
  1
24
 41
0.8299999999999998
100
AcDbText
  0
TEXT
  5
486
330
1E
100
AcDbEntity
  8
SU
100
AcDbText
 10
522.4076669999999
 20
161.55
 30
0.0
 40
7.0
  1
有効開口=W-122.5
 41
0.8299999999999998
100
AcDbText
  0
TEXT
  5
487
330
1E
100
AcDbEntity
  8
SU
100
AcDbText
 10
654.5666669999999
 20
161.55
 30
0.0
 40
7.0
  1
86.5
 41
0.8299999999999998
100
AcDbText
  0
ARC
  5
488
330
1E
100
AcDbEntity
  8
SU
100
AcDbCircle
 10
707.5
 20
160.25
 30
0.0
 40
0.6
100
AcDbArc
 50
180.0
 51
0.0
  0
ARC
  5
489
330
1E
100
AcDbEntity
  8
SU
100
AcDbCircle
 10
707.5
 20
160.25
 30
0.0
 40
0.6
100
AcDbArc
 50
0.0
 51
180.0
  0
ARC
  5
48A
330
1E
100
AcDbEntity
  8
SU
100
AcDbCircle
 10
493.5
 20
160.25
 30
0.0
 40
0.6
100
AcDbArc
 50
0.0
 51
180.0
  0
ARC
  5
48B
330
1E
100
AcDbEntity
  8
SU
100
AcDbCircle
 10
493.5
 20
160.25
 30
0.0
 40
0.6
100
AcDbArc
 50
180.0
 51
0.0
  0
ARC
  5
48C
330
1E
100
AcDbEntity
  8
SU
100
AcDbCircle
 10
621.0
 20
160.25
 30
0.0
 40
0.6
100
AcDbArc
 50
180.0
 51
0.0
  0
ARC
  5
48D
330
1E
100
AcDbEntity
  8
SU
100
AcDbCircle
 10
621.0
 20
160.25
 30
0.0
 40
0.6
100
AcDbArc
 50
0.0
 51
180.0
  0
ARC
  5
48E
330
1E
100
AcDbEntity
  8
SU
100
AcDbCircle
 10
707.5
 20
130.2499999999999
 30
0.0
 40
0.6
100
AcDbArc
 50
180.0
 51
0.0
  0
ARC
  5
48F
330
1E
100
AcDbEntity
  8
SU
100
AcDbCircle
 10
707.5
 20
130.2499999999999
 30
0.0
 40
0.6
100
AcDbArc
 50
0.0
 51
180.0
  0
ARC
  5
490
330
1E
100
AcDbEntity
  8
SU
100
AcDbCircle
 10
683.4999999999999
 20
130.2499999999999
 30
0.0
 40
0.6
100
AcDbArc
 50
180.0
 51
0.0
  0
ARC
  5
491
330
1E
100
AcDbEntity
  8
SU
100
AcDbCircle
 10
683.4999999999999
 20
130.2499999999999
 30
0.0
 40
0.6
100
AcDbArc
 50
0.0
 51
180.0
  0
ARC
  5
492
330
1E
100
AcDbEntity
  8
SU
100
AcDbCircle
 10
679.4999999999999
 20
130.2499999999999
 30
0.0
 40
0.6
100
AcDbArc
 50
180.0
 51
0.0
  0
ARC
  5
493
330
1E
100
AcDbEntity
  8
SU
100
AcDbCircle
 10
679.4999999999999
 20
130.2499999999999
 30
0.0
 40
0.6
100
AcDbArc
 50
0.0
 51
180.0
  0
ARC
  5
494
330
1E
100
AcDbEntity
  8
SU
100
AcDbCircle
 10
485.5
 20
130.2499999999999
 30
0.0
 40
0.6
100
AcDbArc
 50
0.0
 51
180.0
  0
ARC
  5
495
330
1E
100
AcDbEntity
  8
SU
100
AcDbCircle
 10
485.5
 20
130.2499999999999
 30
0.0
 40
0.6
100
AcDbArc
 50
180.0
 51
0.0
  0
ARC
  5
496
330
1E
100
AcDbEntity
  8
SU
100
AcDbCircle
 10
481.5
 20
130.2499999999999
 30
0.0
 40
0.6
100
AcDbArc
 50
180.0
 51
0.0
  0
ARC
  5
497
330
1E
100
AcDbEntity
  8
SU
100
AcDbCircle
 10
481.5
 20
130.2499999999999
 30
0.0
 40
0.6
100
AcDbArc
 50
0.0
 51
180.0
  0
ARC
  5
498
330
1E
100
AcDbEntity
  8
SU
100
AcDbCircle
 10
457.5
 20
130.2499999999999
 30
0.0
 40
0.6
100
AcDbArc
 50
0.0
 51
180.0
  0
ARC
  5
499
330
1E
100
AcDbEntity
  8
SU
100
AcDbCircle
 10
457.5
 20
130.2499999999999
 30
0.0
 40
0.6
100
AcDbArc
 50
180.0
 51
0.0
  0
ARC
  5
49A
330
1E
100
AcDbEntity
  8
SU
100
AcDbCircle
 10
526.0
 20
220.25
 30
0.0
 40
0.6
100
AcDbArc
 50
90.0
 51
270.0
  0
ARC
  5
49B
330
1E
100
AcDbEntity
  8
SU
100
AcDbCircle
 10
526.0
 20
220.25
 30
0.0
 40
0.6
100
AcDbArc
 50
270.0
 51
90.0
  0
ARC
  5
49C
330
1E
100
AcDbEntity
  8
SU
100
AcDbCircle
 10
526.0
 20
227.7499999999999
 30
0.0
 40
0.6
100
AcDbArc
 50
90.0
 51
270.0
  0
ARC
  5
49D
330
1E
100
AcDbEntity
  8
SU
100
AcDbCircle
 10
526.0
 20
227.7499999999999
 30
0.0
 40
0.6
100
AcDbArc
 50
270.0
 51
90.0
  0
ARC
  5
49E
330
1E
100
AcDbEntity
  8
SU
100
AcDbCircle
 10
526.0
 20
260.7499999999999
 30
0.0
 40
0.6
100
AcDbArc
 50
90.0
 51
270.0
  0
ARC
  5
49F
330
1E
100
AcDbEntity
  8
SU
100
AcDbCircle
 10
526.0
 20
260.7499999999999
 30
0.0
 40
0.6
100
AcDbArc
 50
270.0
 51
90.0
  0
ARC
  5
4A0
330
1E
100
AcDbEntity
  8
SU
100
AcDbCircle
 10
526.0
 20
263.75
 30
0.0
 40
0.6
100
AcDbArc
 50
90.0
 51
270.0
  0
ARC
  5
4A1
330
1E
100
AcDbEntity
  8
SU
100
AcDbCircle
 10
526.0
 20
263.75
 30
0.0
 40
0.6
100
AcDbArc
 50
270.0
 51
90.0
  0
ARC
  5
4A2
330
1E
100
AcDbEntity
  8
SU
100
AcDbCircle
 10
526.0
 20
333.25
 30
0.0
 40
0.6
100
AcDbArc
 50
270.0
 51
90.0
  0
ARC
  5
4A3
330
1E
100
AcDbEntity
  8
SU
100
AcDbCircle
 10
526.0
 20
333.25
 30
0.0
 40
0.6
100
AcDbArc
 50
90.0
 51
270.0
  0
ARC
  5
4A4
330
1E
100
AcDbEntity
  8
SU
100
AcDbCircle
 10
526.0
 20
281.7499999999999
 30
0.0
 40
0.6
100
AcDbArc
 50
90.0
 51
270.0
  0
ARC
  5
4A5
330
1E
100
AcDbEntity
  8
SU
100
AcDbCircle
 10
526.0
 20
281.7499999999999
 30
0.0
 40
0.6
100
AcDbArc
 50
270.0
 51
90.0
  0
ARC
  5
4A6
330
1E
100
AcDbEntity
  8
SU
100
AcDbCircle
 10
541.0
 20
333.25
 30
0.0
 40
0.6
100
AcDbArc
 50
270.0
 51
90.0
  0
ARC
  5
4A7
330
1E
100
AcDbEntity
  8
SU
100
AcDbCircle
 10
541.0
 20
333.25
 30
0.0
 40
0.6
100
AcDbArc
 50
90.0
 51
270.0
  0
ARC
  5
4A8
330
1E
100
AcDbEntity
  8
SU
100
AcDbCircle
 10
541.0
 20
220.25
 30
0.0
 40
0.6
100
AcDbArc
 50
90.0
 51
270.0
  0
ARC
  5
4A9
330
1E
100
AcDbEntity
  8
SU
100
AcDbCircle
 10
541.0
 20
220.25
 30
0.0
 40
0.6
100
AcDbArc
 50
270.0
 51
90.0
  0
ARC
  5
4AA
330
1E
100
AcDbEntity
  8
SU
100
AcDbCircle
 10
671.4999999999999
 20
353.25
 30
0.0
 40
0.6
100
AcDbArc
 50
0.0
 51
180.0
  0
ARC
  5
4AB
330
1E
100
AcDbEntity
  8
SU
100
AcDbCircle
 10
671.4999999999999
 20
353.25
 30
0.0
 40
0.6
100
AcDbArc
 50
180.0
 51
0.0
  0
ARC
  5
4AC
330
1E
100
AcDbEntity
  8
SU
100
AcDbCircle
 10
707.5
 20
353.25
 30
0.0
 40
0.6
100
AcDbArc
 50
180.0
 51
0.0
  0
ARC
  5
4AD
330
1E
100
AcDbEntity
  8
SU
100
AcDbCircle
 10
707.5
 20
353.25
 30
0.0
 40
0.6
100
AcDbArc
 50
0.0
 51
180.0
  0
ARC
  5
4AE
330
1E
100
AcDbEntity
  8
SU
100
AcDbCircle
 10
683.4999999999999
 20
353.25
 30
0.0
 40
0.6
100
AcDbArc
 50
0.0
 51
180.0
  0
ARC
  5
4AF
330
1E
100
AcDbEntity
  8
SU
100
AcDbCircle
 10
683.4999999999999
 20
353.25
 30
0.0
 40
0.6
100
AcDbArc
 50
180.0
 51
0.0
  0
ARC
  5
4B0
330
1E
100
AcDbEntity
  8
SU
100
AcDbCircle
 10
493.5
 20
353.25
 30
0.0
 40
0.6
100
AcDbArc
 50
180.0
 51
0.0
  0
ARC
  5
4B1
330
1E
100
AcDbEntity
  8
SU
100
AcDbCircle
 10
493.5
 20
353.25
 30
0.0
 40
0.6
100
AcDbArc
 50
0.0
 51
180.0
  0
ARC
  5
4B2
330
1E
100
AcDbEntity
  8
SU
100
AcDbCircle
 10
457.5
 20
353.25
 30
0.0
 40
0.6
100
AcDbArc
 50
0.0
 51
180.0
  0
ARC
  5
4B3
330
1E
100
AcDbEntity
  8
SU
100
AcDbCircle
 10
457.5
 20
353.25
 30
0.0
 40
0.6
100
AcDbArc
 50
180.0
 51
0.0
  0
ARC
  5
4B4
330
1E
100
AcDbEntity
  8
SU
100
AcDbCircle
 10
481.5
 20
353.25
 30
0.0
 40
0.6
100
AcDbArc
 50
180.0
 51
0.0
  0
ARC
  5
4B5
330
1E
100
AcDbEntity
  8
SU
100
AcDbCircle
 10
481.5
 20
353.25
 30
0.0
 40
0.6
100
AcDbArc
 50
0.0
 51
180.0
  0
LINE
  5
4B6
330
1E
100
AcDbEntity
  8
KI1
100
AcDbLine
 10
170.0
 20
210.25
 30
0.0
 11
170.0
 21
312.25
 31
0.0
  0
LINE
  5
4B7
330
1E
100
AcDbEntity
  8
KI1
100
AcDbLine
 10
152.0
 20
404.75
 30
0.0
 11
152.0
 21
314.25
 31
0.0
  0
LINE
  5
4B8
330
1E
100
AcDbEntity
  8
KI1
100
AcDbLine
 10
165.5999999999999
 20
416.2499999999999
 30
0.0
 11
165.5999999999999
 21
424.2499999999999
 31
0.0
  0
LINE
  5
4B9
330
1E
100
AcDbEntity
  8
KI1
100
AcDbLine
 10
156.4
 20
416.2499999999999
 30
0.0
 11
156.4
 21
424.2499999999999
 31
0.0
  0
LINE
  5
4BA
330
1E
100
AcDbEntity
  8
KI1
100
AcDbLine
 10
153.000001
 20
416.2499999999999
 30
0.0
 11
153.000001
 21
424.2499999999999
 31
0.0
  0
LINE
  5
4BB
330
1E
100
AcDbEntity
  8
KI1
100
AcDbLine
 10
168.999999
 20
416.2499999999999
 30
0.0
 11
168.999999
 21
424.2499999999999
 31
0.0
  0
LINE
  5
4BC
330
1E
100
AcDbEntity
  8
KI1
100
AcDbLine
 10
152.0
 20
404.75
 30
0.0
 11
152.0
 21
416.2499
 31
0.0
  0
LINE
  5
4BD
330
1E
100
AcDbEntity
  8
KI1
100
AcDbLine
 10
153.8
 20
406.05
 30
0.0
 11
153.8
 21
414.252684
 31
0.0
  0
LINE
  5
4BE
330
1E
100
AcDbEntity
  8
KI1
100
AcDbLine
 10
154.5000399999999
 20
423.24988
 30
0.0
 11
155.50003
 21
423.24988
 31
0.0
  0
LINE
  5
4BF
330
1E
100
AcDbEntity
  8
KI1
100
AcDbLine
 10
153.44998
 20
421.25
 30
0.0
 11
154.1000399999999
 21
421.25
 31
0.0
  0
LINE
  5
4C0
330
1E
100
AcDbEntity
  8
KI1
100
AcDbLine
 10
153.44998
 20
419.2499399999999
 30
0.0
 11
154.1000399999999
 21
419.2499399999999
 31
0.0
  0
LINE
  5
4C1
330
1E
100
AcDbEntity
  8
KI1
100
AcDbLine
 10
153.44998
 20
417.2498799999999
 30
0.0
 11
154.1000399999999
 21
417.2498799999999
 31
0.0
  0
LINE
  5
4C2
330
1E
100
AcDbEntity
  8
KI1
100
AcDbLine
 10
153.44998
 20
419.2499399999999
 30
0.0
 11
154.1000399999999
 21
421.25
 31
0.0
  0
LINE
  5
4C3
330
1E
100
AcDbEntity
  8
KI1
100
AcDbLine
 10
153.44998
 20
417.2498799999999
 30
0.0
 11
154.1000399999999
 21
419.2499399999999
 31
0.0
  0
LINE
  5
4C4
330
1E
100
AcDbEntity
  8
KI1
100
AcDbLine
 10
153.44998
 20
421.25
 30
0.0
 11
154.5000399999999
 21
423.24988
 31
0.0
  0
LINE
  5
4C5
330
1E
100
AcDbEntity
  8
KI1
100
AcDbLine
 10
154.1000399999999
 20
416.03117
 30
0.0
 11
154.1000399999999
 21
417.2498799999999
 31
0.0
  0
LINE
  5
4C6
330
1E
100
AcDbEntity
  8
KI1
100
AcDbLine
 10
152.0
 20
416.2499
 30
0.0
 11
154.1000399999999
 21
416.03117
 31
0.0
  0
LINE
  5
4C7
330
1E
100
AcDbEntity
  8
KI1
100
AcDbLine
 10
155.9000399999999
 20
421.25
 30
0.0
 11
156.5500399999999
 21
421.25
 31
0.0
  0
LINE
  5
4C8
330
1E
100
AcDbEntity
  8
KI1
100
AcDbLine
 10
155.9000399999999
 20
419.2499399999999
 30
0.0
 11
156.5500399999999
 21
419.2499399999999
 31
0.0
  0
LINE
  5
4C9
330
1E
100
AcDbEntity
  8
KI1
100
AcDbLine
 10
155.9000399999999
 20
417.2498799999999
 30
0.0
 11
156.5500399999999
 21
417.2498799999999
 31
0.0
  0
LINE
  5
4CA
330
1E
100
AcDbEntity
  8
KI1
100
AcDbLine
 10
155.9000399999999
 20
419.2499399999999
 30
0.0
 11
156.5500399999999
 21
417.2498799999999
 31
0.0
  0
LINE
  5
4CB
330
1E
100
AcDbEntity
  8
KI1
100
AcDbLine
 10
155.9000399999999
 20
421.25
 30
0.0
 11
156.5500399999999
 21
419.2499399999999
 31
0.0
  0
LINE
  5
4CC
330
1E
100
AcDbEntity
  8
KI1
100
AcDbLine
 10
155.50003
 20
423.24988
 30
0.0
 11
156.5500399999999
 21
421.25
 31
0.0
  0
LINE
  5
4CD
330
1E
100
AcDbEntity
  8
KI1
100
AcDbLine
 10
155.9000399999999
 20
417.2498799999999
 30
0.0
 11
155.9000399999999
 21
422.488009
 31
0.0
  0
LINE
  5
4CE
330
1E
100
AcDbEntity
  8
KI1
100
AcDbLine
 10
153.8
 20
414.252684
 30
0.0
 11
155.9000399999999
 21
414.033954
 31
0.0
  0
LINE
  5
4CF
330
1E
100
AcDbEntity
  8
KI1
100
AcDbLine
 10
155.9000399999999
 20
414.033954
 30
0.0
 11
155.9000399999999
 21
417.2498799999999
 31
0.0
  0
LINE
  5
4D0
330
1E
100
AcDbEntity
  8
KI1
100
AcDbLine
 10
166.09996
 20
414.033954
 30
0.0
 11
166.09996
 21
417.2498799999999
 31
0.0
  0
LINE
  5
4D1
330
1E
100
AcDbEntity
  8
KI1
100
AcDbLine
 10
168.1999999999999
 20
414.252684
 30
0.0
 11
166.09996
 21
414.033954
 31
0.0
  0
ARC
  5
4D2
330
1E
100
AcDbEntity
  8
KI1
100
AcDbCircle
 10
152.5
 20
404.75
 30
0.0
 40
0.5
100
AcDbArc
 50
180.0
 51
270.0
  0
ARC
  5
4D3
330
1E
100
AcDbEntity
  8
KI1
100
AcDbCircle
 10
169.5
 20
404.75
 30
0.0
 40
0.5
100
AcDbArc
 50
270.0
 51
0.0
  0
LINE
  5
4D4
330
1E
100
AcDbEntity
  8
KI1
100
AcDbLine
 10
168.1999999999999
 20
406.05
 30
0.0
 11
168.1999999999999
 21
414.252684
 31
0.0
  0
LINE
  5
4D5
330
1E
100
AcDbEntity
  8
KI1
100
AcDbLine
 10
168.1999999999999
 20
406.05
 30
0.0
 11
153.8
 21
406.05
 31
0.0
  0
LINE
  5
4D6
330
1E
100
AcDbEntity
  8
KI1
100
AcDbLine
 10
166.09996
 20
417.2498799999999
 30
0.0
 11
166.09996
 21
422.488009
 31
0.0
  0
LINE
  5
4D7
330
1E
100
AcDbEntity
  8
KI1
100
AcDbLine
 10
166.4999699999999
 20
423.24988
 30
0.0
 11
165.44996
 21
421.25
 31
0.0
  0
LINE
  5
4D8
330
1E
100
AcDbEntity
  8
KI1
100
AcDbLine
 10
166.09996
 20
421.25
 30
0.0
 11
165.44996
 21
419.2499399999999
 31
0.0
  0
LINE
  5
4D9
330
1E
100
AcDbEntity
  8
KI1
100
AcDbLine
 10
166.09996
 20
419.2499399999999
 30
0.0
 11
165.44996
 21
417.2498799999999
 31
0.0
  0
LINE
  5
4DA
330
1E
100
AcDbEntity
  8
KI1
100
AcDbLine
 10
166.09996
 20
417.2498799999999
 30
0.0
 11
165.44996
 21
417.2498799999999
 31
0.0
  0
LINE
  5
4DB
330
1E
100
AcDbEntity
  8
KI1
100
AcDbLine
 10
166.09996
 20
419.2499399999999
 30
0.0
 11
165.44996
 21
419.2499399999999
 31
0.0
  0
LINE
  5
4DC
330
1E
100
AcDbEntity
  8
KI1
100
AcDbLine
 10
166.09996
 20
421.25
 30
0.0
 11
165.44996
 21
421.25
 31
0.0
  0
LINE
  5
4DD
330
1E
100
AcDbEntity
  8
KI1
100
AcDbLine
 10
170.0
 20
416.2499
 30
0.0
 11
167.89996
 21
416.03117
 31
0.0
  0
LINE
  5
4DE
330
1E
100
AcDbEntity
  8
KI1
100
AcDbLine
 10
167.89996
 20
416.03117
 30
0.0
 11
167.89996
 21
417.2498799999999
 31
0.0
  0
LINE
  5
4DF
330
1E
100
AcDbEntity
  8
KI1
100
AcDbLine
 10
168.5500199999999
 20
421.25
 30
0.0
 11
167.49996
 21
423.24988
 31
0.0
  0
LINE
  5
4E0
330
1E
100
AcDbEntity
  8
KI1
100
AcDbLine
 10
168.5500199999999
 20
417.2498799999999
 30
0.0
 11
167.89996
 21
419.2499399999999
 31
0.0
  0
LINE
  5
4E1
330
1E
100
AcDbEntity
  8
KI1
100
AcDbLine
 10
168.5500199999999
 20
419.2499399999999
 30
0.0
 11
167.89996
 21
421.25
 31
0.0
  0
LINE
  5
4E2
330
1E
100
AcDbEntity
  8
KI1
100
AcDbLine
 10
168.5500199999999
 20
417.2498799999999
 30
0.0
 11
167.89996
 21
417.2498799999999
 31
0.0
  0
LINE
  5
4E3
330
1E
100
AcDbEntity
  8
KI1
100
AcDbLine
 10
168.5500199999999
 20
419.2499399999999
 30
0.0
 11
167.89996
 21
419.2499399999999
 31
0.0
  0
LINE
  5
4E4
330
1E
100
AcDbEntity
  8
KI1
100
AcDbLine
 10
168.5500199999999
 20
421.25
 30
0.0
 11
167.89996
 21
421.25
 31
0.0
  0
LINE
  5
4E5
330
1E
100
AcDbEntity
  8
KI1
100
AcDbLine
 10
167.49996
 20
423.24988
 30
0.0
 11
166.4999699999999
 21
423.24988
 31
0.0
  0
LINE
  5
4E6
330
1E
100
AcDbEntity
  8
KI1
100
AcDbLine
 10
170.0
 20
404.75
 30
0.0
 11
170.0
 21
416.2499
 31
0.0
  0
LINE
  5
4E7
330
1E
100
AcDbEntity
  8
KI1
100
AcDbLine
 10
169.5
 20
404.25
 30
0.0
 11
152.5
 21
404.25
 31
0.0
  0
LINE
  5
4E8
330
1E
100
AcDbEntity
  8
KI1
100
AcDbLine
 10
165.5999999999999
 20
416.2499999999999
 30
0.0
 11
156.4
 21
416.2499999999999
 31
0.0
  0
LINE
  5
4E9
330
1E
100
AcDbEntity
  8
KI1
100
AcDbLine
 10
165.5999999999999
 20
424.2499999999999
 30
0.0
 11
168.999999
 21
424.2499999999999
 31
0.0
  0
LINE
  5
4EA
330
1E
100
AcDbEntity
  8
KI1
100
AcDbLine
 10
153.000001
 20
424.2499999999999
 30
0.0
 11
156.4
 21
424.2499999999999
 31
0.0
  0
LINE
  5
4EB
330
1E
100
AcDbEntity
  8
OS
100
AcDbLine
 10
156.4
 20
420.230303
 30
0.0
 11
176.4196969999999
 21
440.2499999999999
 31
0.0
1001
GENIUS_GENODEF_13
1002
{
1000
HIER
1070
     0
1002
}
1002
{
1000
MANEDIT
1070
     0
1002
}
1002
{
1000
NOSEL
1070
     0
1002
}
1002
{
1000
BEHIND
1070
     0
1002
}
1002
{
1000
OTHER
1070
     0
1002
}
1002
{
1000
REACTOR
1002
}
1001
GENIUS_GENOBJ-N-HTC_13
1002
{
1000
OWNER
1000
GEN
1002
}
1001
GENIUS_GENHATCH_13
1002
{
1000
DATA
1040
45.0
1042
2.5
1000
_U
1070
     0
1011
130.10584
1021
428.2905179999999
1031
0.0
1002
}
1002
{
1000
UCS
1010
0.0
1020
0.0
1030
0.0
1010
1.0
1020
0.0
1030
0.0
1010
0.0
1020
1.0
1030
0.0
1002
}
1001
ACAD
1010
0.0
1020
0.0
1030
0.0
  0
LINE
  5
4EC
330
1E
100
AcDbEntity
  8
OS
100
AcDbLine
 10
168.999999
 20
422.930807
 30
0.0
 11
186.319192
 21
440.2499999999999
 31
0.0
1001
GENIUS_GENODEF_13
1002
{
1000
HIER
1070
     0
1002
}
1002
{
1000
MANEDIT
1070
     0
1002
}
1002
{
1000
NOSEL
1070
     0
1002
}
1002
{
1000
BEHIND
1070
     0
1002
}
1002
{
1000
OTHER
1070
     0
1002
}
1002
{
1000
REACTOR
1002
}
1001
GENIUS_GENOBJ-N-HTC_13
1002
{
1000
OWNER
1000
GEN
1002
}
1001
GENIUS_GENHATCH_13
1002
{
1000
DATA
1040
45.0
1042
2.5
1000
_U
1070
     0
1011
130.10584
1021
428.2905179999999
1031
0.0
1002
}
1002
{
1000
UCS
1010
0.0
1020
0.0
1030
0.0
1010
1.0
1020
0.0
1030
0.0
1010
0.0
1020
1.0
1030
0.0
1002
}
1001
ACAD
1010
0.0
1020
0.0
1030
0.0
  0
LINE
  5
4ED
330
1E
100
AcDbEntity
  8
KI1
100
AcDbLine
 10
152.0
 20
312.25
 30
0.0
 11
152.0
 21
255.259327
 31
0.0
  0
LINE
  5
4EE
330
1E
100
AcDbEntity
  8
KI1
100
AcDbLine
 10
170.0
 20
314.25
 30
0.0
 11
170.0
 21
404.75
 31
0.0
  0
LINE
  5
4EF
330
1E
100
AcDbEntity
  8
KI1
100
AcDbLine
 10
152.0
 20
231.9579459999999
 30
0.0
 11
152.0
 21
210.25
 31
0.0
  0
LINE
  5
4F0
330
1E
100
AcDbEntity
  8
KI1
100
AcDbLine
 10
170.0
 20
60.25
 30
0.0
 11
170.0
 21
160.25
 31
0.0
  0
LINE
  5
4F1
330
1E
100
AcDbEntity
  8
KI1
100
AcDbLine
 10
152.0
 20
160.25
 30
0.0
 11
152.0
 21
105.259327
 31
0.0
  0
LINE
  5
4F2
330
1E
100
AcDbEntity
  8
KI1
100
AcDbLine
 10
152.0
 20
81.95794599999999
 30
0.0
 11
152.0
 21
60.25
 31
0.0
  0
TEXT
  5
4F3
330
1E
100
AcDbEntity
  8
SU
100
AcDbText
 10
267.2
 20
213.614593
 30
0.0
 40
7.0
  1
8
 50
90.0
 41
0.8299999999999998
100
AcDbText
  0
TEXT
  5
4F4
330
1E
100
AcDbEntity
  8
SU
100
AcDbText
 10
550.2
 20
450.0177339999999
 30
0.0
 40
7.0
  1
7
 50
90.0
 41
0.8299999999999998
100
AcDbText
  0
LINE
  5
4F5
330
1E
100
AcDbEntity
  8
KI1
100
AcDbLine
 10
453.0
 20
449.2499999999999
 30
0.0
 11
453.0
 21
526.25
 31
0.0
  0
LINE
  5
4F6
330
1E
100
AcDbEntity
  8
KI1
100
AcDbLine
 10
435.0
 20
526.25
 30
0.0
 11
435.0
 21
449.2499999999999
 31
0.0
  0
LINE
  5
4F7
330
1E
100
AcDbEntity
  8
KI2
100
AcDbLine
 10
155.9000399999999
 20
421.083907
 30
0.0
 11
155.9407789999999
 21
421.1246459999999
 31
0.0
  0
LINE
  5
4F8
330
1E
100
AcDbEntity
  8
KI2
100
AcDbLine
 10
155.9000399999999
 20
420.769598
 30
0.0
 11
156.017872
 21
420.8874299999999
 31
0.0
  0
LINE
  5
4F9
330
1E
100
AcDbEntity
  8
KI2
100
AcDbLine
 10
155.9000399999999
 20
420.455289
 30
0.0
 11
156.0949649999999
 21
420.6502139999999
 31
0.0
  0
LINE
  5
4FA
330
1E
100
AcDbEntity
  8
KI2
100
AcDbLine
 10
155.9000399999999
 20
420.1409799999999
 30
0.0
 11
156.172058
 21
420.4129980000001
 31
0.0
  0
LINE
  5
4FB
330
1E
100
AcDbEntity
  8
KI2
100
AcDbLine
 10
155.9000399999999
 20
419.8266709999999
 30
0.0
 11
156.2491499999999
 21
420.175782
 31
0.0
  0
LINE
  5
4FC
330
1E
100
AcDbEntity
  8
KI2
100
AcDbLine
 10
155.9000399999999
 20
419.512362
 30
0.0
 11
156.3262429999999
 21
419.938566
 31
0.0
  0
LINE
  5
4FD
330
1E
100
AcDbEntity
  8
KI2
100
AcDbLine
 10
155.951927
 20
419.2499399999999
 30
0.0
 11
156.403336
 21
419.7013499999999
 31
0.0
  0
LINE
  5
4FE
330
1E
100
AcDbEntity
  8
KI2
100
AcDbLine
 10
156.266236
 20
419.2499399999999
 30
0.0
 11
156.480429
 21
419.464134
 31
0.0
  0
LINE
  5
4FF
330
1E
100
AcDbEntity
  8
KI2
100
AcDbLine
 10
155.9000399999999
 20
419.1980529999999
 30
0.0
 11
155.912767
 21
419.21078
 31
0.0
  0
LINE
  5
500
330
1E
100
AcDbEntity
  8
KI2
100
AcDbLine
 10
155.9000399999999
 20
418.8837439999999
 30
0.0
 11
155.98986
 21
418.973564
 31
0.0
  0
LINE
  5
501
330
1E
100
AcDbEntity
  8
KI2
100
AcDbLine
 10
155.9000399999999
 20
418.569435
 30
0.0
 11
156.066952
 21
418.736348
 31
0.0
  0
LINE
  5
502
330
1E
100
AcDbEntity
  8
KI2
100
AcDbLine
 10
155.9000399999999
 20
418.2551259999999
 30
0.0
 11
156.144045
 21
418.4991319999999
 31
0.0
  0
LINE
  5
503
330
1E
100
AcDbEntity
  8
KI2
100
AcDbLine
 10
155.9000399999999
 20
417.940817
 30
0.0
 11
156.2211379999999
 21
418.261916
 31
0.0
  0
LINE
  5
504
330
1E
100
AcDbEntity
  8
KI2
100
AcDbLine
 10
155.9000399999999
 20
417.626508
 30
0.0
 11
156.298231
 21
418.0246999999999
 31
0.0
  0
LINE
  5
505
330
1E
100
AcDbEntity
  8
KI2
100
AcDbLine
 10
155.9000399999999
 20
417.312199
 30
0.0
 11
156.375324
 21
417.787484
 31
0.0
  0
LINE
  5
506
330
1E
100
AcDbEntity
  8
KI2
100
AcDbLine
 10
156.1520289999999
 20
417.2498799999999
 30
0.0
 11
156.452417
 21
417.550268
 31
0.0
  0
LINE
  5
507
330
1E
100
AcDbEntity
  8
KI2
100
AcDbLine
 10
156.4663379999999
 20
417.2498799999999
 30
0.0
 11
156.52951
 21
417.313051
 31
0.0
  0
LINE
  5
508
330
1E
100
AcDbEntity
  8
KI2
100
AcDbLine
 10
155.9000399999999
 20
422.3411429999999
 30
0.0
 11
155.950603
 21
422.3917059999999
 31
0.0
  0
LINE
  5
509
330
1E
100
AcDbEntity
  8
KI2
100
AcDbLine
 10
155.9000399999999
 20
422.026834
 30
0.0
 11
156.058812
 21
422.1856059999999
 31
0.0
  0
LINE
  5
50A
330
1E
100
AcDbEntity
  8
KI2
100
AcDbLine
 10
155.9000399999999
 20
421.712525
 30
0.0
 11
156.167022
 21
421.9795069999999
 31
0.0
  0
LINE
  5
50B
330
1E
100
AcDbEntity
  8
KI2
100
AcDbLine
 10
155.9000399999999
 20
421.3982159999999
 30
0.0
 11
156.275232
 21
421.773408
 31
0.0
  0
LINE
  5
50C
330
1E
100
AcDbEntity
  8
KI2
100
AcDbLine
 10
156.066133
 20
421.25
 30
0.0
 11
156.383441
 21
421.567309
 31
0.0
  0
LINE
  5
50D
330
1E
100
AcDbEntity
  8
KI2
100
AcDbLine
 10
156.3804419999999
 20
421.25
 30
0.0
 11
156.4916509999999
 21
421.3612089999999
 31
0.0
  0
LINE
  5
50E
330
1E
100
AcDbEntity
  8
KI2
100
AcDbLine
 10
165.619558
 20
421.25
 30
0.0
 11
165.508349
 21
421.3612089999999
 31
0.0
  0
LINE
  5
50F
330
1E
100
AcDbEntity
  8
KI2
100
AcDbLine
 10
165.9338669999999
 20
421.25
 30
0.0
 11
165.616559
 21
421.567309
 31
0.0
  0
LINE
  5
510
330
1E
100
AcDbEntity
  8
KI2
100
AcDbLine
 10
166.09996
 20
421.3982159999999
 30
0.0
 11
165.7247679999999
 21
421.773408
 31
0.0
  0
LINE
  5
511
330
1E
100
AcDbEntity
  8
KI2
100
AcDbLine
 10
166.09996
 20
421.712525
 30
0.0
 11
165.832978
 21
421.9795069999999
 31
0.0
  0
LINE
  5
512
330
1E
100
AcDbEntity
  8
KI2
100
AcDbLine
 10
166.09996
 20
422.026834
 30
0.0
 11
165.9411879999999
 21
422.1856059999999
 31
0.0
  0
LINE
  5
513
330
1E
100
AcDbEntity
  8
KI2
100
AcDbLine
 10
166.09996
 20
422.3411429999999
 30
0.0
 11
166.049397
 21
422.3917059999999
 31
0.0
  0
LINE
  5
514
330
1E
100
AcDbEntity
  8
KI2
100
AcDbLine
 10
165.7337639999999
 20
419.2499399999999
 30
0.0
 11
165.5195709999999
 21
419.464134
 31
0.0
  0
LINE
  5
515
330
1E
100
AcDbEntity
  8
KI2
100
AcDbLine
 10
166.0480729999999
 20
419.2499399999999
 30
0.0
 11
165.5966639999999
 21
419.7013499999999
 31
0.0
  0
LINE
  5
516
330
1E
100
AcDbEntity
  8
KI2
100
AcDbLine
 10
166.09996
 20
419.512362
 30
0.0
 11
165.6737569999999
 21
419.938566
 31
0.0
  0
LINE
  5
517
330
1E
100
AcDbEntity
  8
KI2
100
AcDbLine
 10
166.09996
 20
419.8266709999999
 30
0.0
 11
165.75085
 21
420.175782
 31
0.0
  0
LINE
  5
518
330
1E
100
AcDbEntity
  8
KI2
100
AcDbLine
 10
166.09996
 20
420.1409799999999
 30
0.0
 11
165.8279419999999
 21
420.4129980000001
 31
0.0
  0
LINE
  5
519
330
1E
100
AcDbEntity
  8
KI2
100
AcDbLine
 10
166.09996
 20
420.455289
 30
0.0
 11
165.905035
 21
420.6502139999999
 31
0.0
  0
LINE
  5
51A
330
1E
100
AcDbEntity
  8
KI2
100
AcDbLine
 10
166.09996
 20
420.769598
 30
0.0
 11
165.9821279999999
 21
420.8874299999999
 31
0.0
  0
LINE
  5
51B
330
1E
100
AcDbEntity
  8
KI2
100
AcDbLine
 10
166.09996
 20
421.083907
 30
0.0
 11
166.059221
 21
421.1246459999999
 31
0.0
  0
LINE
  5
51C
330
1E
100
AcDbEntity
  8
KI2
100
AcDbLine
 10
165.533662
 20
417.2498799999999
 30
0.0
 11
165.4704899999999
 21
417.313051
 31
0.0
  0
LINE
  5
51D
330
1E
100
AcDbEntity
  8
KI2
100
AcDbLine
 10
165.8479709999999
 20
417.2498799999999
 30
0.0
 11
165.547583
 21
417.550268
 31
0.0
  0
LINE
  5
51E
330
1E
100
AcDbEntity
  8
KI2
100
AcDbLine
 10
166.09996
 20
417.312199
 30
0.0
 11
165.6246759999999
 21
417.787484
 31
0.0
  0
LINE
  5
51F
330
1E
100
AcDbEntity
  8
KI2
100
AcDbLine
 10
166.09996
 20
417.626508
 30
0.0
 11
165.7017689999999
 21
418.0246999999999
 31
0.0
  0
LINE
  5
520
330
1E
100
AcDbEntity
  8
KI2
100
AcDbLine
 10
166.09996
 20
417.940817
 30
0.0
 11
165.778862
 21
418.261916
 31
0.0
  0
LINE
  5
521
330
1E
100
AcDbEntity
  8
KI2
100
AcDbLine
 10
166.09996
 20
418.2551259999999
 30
0.0
 11
165.8559549999999
 21
418.4991319999999
 31
0.0
  0
LINE
  5
522
330
1E
100
AcDbEntity
  8
KI2
100
AcDbLine
 10
166.09996
 20
418.569435
 30
0.0
 11
165.9330479999999
 21
418.736348
 31
0.0
  0
LINE
  5
523
330
1E
100
AcDbEntity
  8
KI2
100
AcDbLine
 10
166.09996
 20
418.8837439999999
 30
0.0
 11
166.0101399999999
 21
418.973564
 31
0.0
  0
LINE
  5
524
330
1E
100
AcDbEntity
  8
KI2
100
AcDbLine
 10
166.09996
 20
419.1980529999999
 30
0.0
 11
166.087233
 21
419.21078
 31
0.0
  0
LINE
  5
525
330
1E
100
AcDbEntity
  8
KI2
100
AcDbLine
 10
485.711942
 20
260.939108
 30
0.0
 11
483.9997509999999
 21
262.651298
 31
0.0
  0
LINE
  5
526
330
1E
100
AcDbEntity
  8
KI2
100
AcDbLine
 10
486.792694
 20
260.756381
 30
0.0
 11
485.4416889999999
 21
262.107387
 31
0.0
  0
LINE
  5
527
330
1E
100
AcDbEntity
  8
KI2
100
AcDbLine
 10
487.6565059999999
 20
260.790595
 30
0.0
 11
486.679913
 21
261.7671879999999
 31
0.0
  0
LINE
  5
528
330
1E
100
AcDbEntity
  8
KI2
100
AcDbLine
 10
488.396312
 20
260.948814
 30
0.0
 11
487.558642
 21
261.7864839999999
 31
0.0
  0
LINE
  5
529
330
1E
100
AcDbEntity
  8
KI2
100
AcDbLine
 10
489.046616
 20
261.1965359999999
 30
0.0
 11
488.2806719999999
 21
261.9624799999999
 31
0.0
  0
LINE
  5
52A
330
1E
100
AcDbEntity
  8
KI2
100
AcDbLine
 10
489.623932
 20
261.517246
 30
0.0
 11
488.8967639999999
 21
262.244413
 31
0.0
  0
LINE
  5
52B
330
1E
100
AcDbEntity
  8
KI2
100
AcDbLine
 10
490.13667
 20
261.9025329999999
 30
0.0
 11
489.4271469999999
 21
262.6120559999999
 31
0.0
  0
LINE
  5
52C
330
1E
100
AcDbEntity
  8
KI2
100
AcDbLine
 10
488.789153
 20
263.2500499999999
 30
0.0
 11
488.4999999999999
 21
263.5392029999999
 31
0.0
  0
LINE
  5
52D
330
1E
100
AcDbEntity
  8
KI2
100
AcDbLine
 10
490.5
 20
262.437229
 30
0.0
 11
489.187179
 21
263.7500499999999
 31
0.0
  0
LINE
  5
52E
330
1E
100
AcDbEntity
  8
KI2
100
AcDbLine
 10
490.5
 20
263.335254
 30
0.0
 11
490.085204
 21
263.7500499999999
 31
0.0
  0
ARC
  5
52F
330
1E
100
AcDbEntity
  8
KI1
100
AcDbCircle
 10
487.0376779999999
 20
265.49284
 30
0.0
 40
3.74279
100
AcDbArc
 50
229.820662
 51
311.138694
  0
ARC
  5
530
330
1E
100
AcDbEntity
  8
KI1
100
AcDbCircle
 10
484.2999999999999
 20
262.251484
 30
0.0
 40
0.5
100
AcDbArc
 50
49.77485900000001
 51
229.901032
  0
LINE
  5
531
330
1E
100
AcDbEntity
  8
KI1
100
AcDbLine
 10
488.4999999999999
 20
263.2500499999999
 30
0.0
 11
489.5
 21
263.2500499999999
 31
0.0
  0
LINE
  5
532
330
1E
100
AcDbEntity
  8
KI1
100
AcDbLine
 10
488.4999999999999
 20
263.7500499999999
 30
0.0
 11
488.4999999999999
 21
263.2500499999999
 31
0.0
  0
LINE
  5
533
330
1E
100
AcDbEntity
  8
KI1
100
AcDbLine
 10
489.5
 20
263.2500499999999
 30
0.0
 11
489.5
 21
262.674073
 31
0.0
  0
ARC
  5
534
330
1E
100
AcDbEntity
  8
KI1
100
AcDbCircle
 10
487.037679
 20
265.492839
 30
0.0
 40
4.742789
100
AcDbArc
 50
229.8242919999999
 51
316.8879009999999
  0
LINE
  5
535
330
1E
100
AcDbEntity
  8
KI1
100
AcDbLine
 10
490.5
 20
263.7500499999999
 30
0.0
 11
490.5
 21
262.251484
 31
0.0
  0
LINE
  5
536
330
1E
100
AcDbEntity
  8
KI1
100
AcDbLine
 10
493.0
 20
281.7500499999999
 30
0.0
 11
481.5000999999999
 21
281.7500499999999
 31
0.0
  0
LINE
  5
537
330
1E
100
AcDbEntity
  8
KI1
100
AcDbLine
 10
491.6999999999999
 20
279.9500499999999
 30
0.0
 11
483.497316
 21
279.9500499999999
 31
0.0
  0
LINE
  5
538
330
1E
100
AcDbEntity
  8
KI1
100
AcDbLine
 10
474.50012
 20
279.25001
 30
0.0
 11
474.50012
 21
278.25002
 31
0.0
  0
LINE
  5
539
330
1E
100
AcDbEntity
  8
KI1
100
AcDbLine
 10
476.4999999999999
 20
280.30007
 30
0.0
 11
476.4999999999999
 21
279.65001
 31
0.0
  0
LINE
  5
53A
330
1E
100
AcDbEntity
  8
KI1
100
AcDbLine
 10
478.50006
 20
280.30007
 30
0.0
 11
478.50006
 21
279.65001
 31
0.0
  0
LINE
  5
53B
330
1E
100
AcDbEntity
  8
KI1
100
AcDbLine
 10
480.50012
 20
280.30007
 30
0.0
 11
480.50012
 21
279.65001
 31
0.0
  0
LINE
  5
53C
330
1E
100
AcDbEntity
  8
KI1
100
AcDbLine
 10
478.50006
 20
280.30007
 30
0.0
 11
476.4999999999999
 21
279.65001
 31
0.0
  0
LINE
  5
53D
330
1E
100
AcDbEntity
  8
KI1
100
AcDbLine
 10
480.50012
 20
280.30007
 30
0.0
 11
478.50006
 21
279.65001
 31
0.0
  0
LINE
  5
53E
330
1E
100
AcDbEntity
  8
KI1
100
AcDbLine
 10
476.4999999999999
 20
280.30007
 30
0.0
 11
474.50012
 21
279.25001
 31
0.0
  0
LINE
  5
53F
330
1E
100
AcDbEntity
  8
KI1
100
AcDbLine
 10
481.7188299999999
 20
279.65001
 30
0.0
 11
480.50012
 21
279.65001
 31
0.0
  0
LINE
  5
540
330
1E
100
AcDbEntity
  8
KI1
100
AcDbLine
 10
481.5000999999999
 20
281.7500499999999
 30
0.0
 11
481.7188299999999
 21
279.65001
 31
0.0
  0
LINE
  5
541
330
1E
100
AcDbEntity
  8
KI1
100
AcDbLine
 10
476.4999999999999
 20
277.85001
 30
0.0
 11
476.4999999999999
 21
277.20001
 31
0.0
  0
LINE
  5
542
330
1E
100
AcDbEntity
  8
KI1
100
AcDbLine
 10
478.50006
 20
277.85001
 30
0.0
 11
478.50006
 21
277.20001
 31
0.0
  0
LINE
  5
543
330
1E
100
AcDbEntity
  8
KI1
100
AcDbLine
 10
480.50012
 20
277.85001
 30
0.0
 11
480.50012
 21
277.20001
 31
0.0
  0
LINE
  5
544
330
1E
100
AcDbEntity
  8
KI1
100
AcDbLine
 10
478.50006
 20
277.85001
 30
0.0
 11
480.50012
 21
277.20001
 31
0.0
  0
LINE
  5
545
330
1E
100
AcDbEntity
  8
KI1
100
AcDbLine
 10
476.4999999999999
 20
277.85001
 30
0.0
 11
478.50006
 21
277.20001
 31
0.0
  0
LINE
  5
546
330
1E
100
AcDbEntity
  8
KI1
100
AcDbLine
 10
474.50012
 20
278.25002
 30
0.0
 11
476.4999999999999
 21
277.20001
 31
0.0
  0
LINE
  5
547
330
1E
100
AcDbEntity
  8
KI1
100
AcDbLine
 10
480.50012
 20
277.85001
 30
0.0
 11
475.2619909999999
 21
277.85001
 31
0.0
  0
LINE
  5
548
330
1E
100
AcDbEntity
  8
KI1
100
AcDbLine
 10
483.497316
 20
279.9500499999999
 30
0.0
 11
483.7160459999999
 21
277.85001
 31
0.0
  0
LINE
  5
549
330
1E
100
AcDbEntity
  8
KI2
100
AcDbLine
 10
478.50006
 20
277.4838139999999
 30
0.0
 11
478.285866
 21
277.2696209999999
 31
0.0
  0
LINE
  5
54A
330
1E
100
AcDbEntity
  8
KI2
100
AcDbLine
 10
478.50006
 20
277.7981229999999
 30
0.0
 11
478.04865
 21
277.346714
 31
0.0
  0
LINE
  5
54B
330
1E
100
AcDbEntity
  8
KI2
100
AcDbLine
 10
478.237638
 20
277.85001
 30
0.0
 11
477.811434
 21
277.423807
 31
0.0
  0
LINE
  5
54C
330
1E
100
AcDbEntity
  8
KI2
100
AcDbLine
 10
477.923329
 20
277.85001
 30
0.0
 11
477.5742179999999
 21
277.5008989999999
 31
0.0
  0
LINE
  5
54D
330
1E
100
AcDbEntity
  8
KI2
100
AcDbLine
 10
477.60902
 20
277.85001
 30
0.0
 11
477.3370019999999
 21
277.577992
 31
0.0
  0
LINE
  5
54E
330
1E
100
AcDbEntity
  8
KI2
100
AcDbLine
 10
477.294711
 20
277.85001
 30
0.0
 11
477.099786
 21
277.655085
 31
0.0
  0
LINE
  5
54F
330
1E
100
AcDbEntity
  8
KI2
100
AcDbLine
 10
476.9804019999999
 20
277.85001
 30
0.0
 11
476.86257
 21
277.7321779999999
 31
0.0
  0
LINE
  5
550
330
1E
100
AcDbEntity
  8
KI2
100
AcDbLine
 10
476.6660929999999
 20
277.85001
 30
0.0
 11
476.625354
 21
277.809271
 31
0.0
  0
LINE
  5
551
330
1E
100
AcDbEntity
  8
KI2
100
AcDbLine
 10
476.4999999999999
 20
277.369608
 30
0.0
 11
476.388791
 21
277.258399
 31
0.0
  0
LINE
  5
552
330
1E
100
AcDbEntity
  8
KI2
100
AcDbLine
 10
476.4999999999999
 20
277.683917
 30
0.0
 11
476.182691
 21
277.3666079999999
 31
0.0
  0
LINE
  5
553
330
1E
100
AcDbEntity
  8
KI2
100
AcDbLine
 10
476.351784
 20
277.85001
 30
0.0
 11
475.9765919999999
 21
277.474818
 31
0.0
  0
LINE
  5
554
330
1E
100
AcDbEntity
  8
KI2
100
AcDbLine
 10
476.0374749999999
 20
277.85001
 30
0.0
 11
475.770493
 21
277.5830279999999
 31
0.0
  0
LINE
  5
555
330
1E
100
AcDbEntity
  8
KI2
100
AcDbLine
 10
475.723166
 20
277.85001
 30
0.0
 11
475.564394
 21
277.691237
 31
0.0
  0
LINE
  5
556
330
1E
100
AcDbEntity
  8
KI2
100
AcDbLine
 10
475.408857
 20
277.85001
 30
0.0
 11
475.358294
 21
277.799447
 31
0.0
  0
LINE
  5
557
330
1E
100
AcDbEntity
  8
KI2
100
AcDbLine
 10
480.50012
 20
277.2837109999999
 30
0.0
 11
480.436949
 21
277.2205399999999
 31
0.0
  0
LINE
  5
558
330
1E
100
AcDbEntity
  8
KI2
100
AcDbLine
 10
480.50012
 20
277.59802
 30
0.0
 11
480.199732
 21
277.297633
 31
0.0
  0
LINE
  5
559
330
1E
100
AcDbEntity
  8
KI2
100
AcDbLine
 10
480.4378009999999
 20
277.85001
 30
0.0
 11
479.9625159999999
 21
277.3747259999999
 31
0.0
  0
LINE
  5
55A
330
1E
100
AcDbEntity
  8
KI2
100
AcDbLine
 10
480.1234919999999
 20
277.85001
 30
0.0
 11
479.7253
 21
277.451819
 31
0.0
  0
LINE
  5
55B
330
1E
100
AcDbEntity
  8
KI2
100
AcDbLine
 10
479.809183
 20
277.85001
 30
0.0
 11
479.4880839999999
 21
277.528912
 31
0.0
  0
LINE
  5
55C
330
1E
100
AcDbEntity
  8
KI2
100
AcDbLine
 10
479.494874
 20
277.85001
 30
0.0
 11
479.250868
 21
277.6060049999999
 31
0.0
  0
LINE
  5
55D
330
1E
100
AcDbEntity
  8
KI2
100
AcDbLine
 10
479.180565
 20
277.85001
 30
0.0
 11
479.0136519999999
 21
277.683097
 31
0.0
  0
LINE
  5
55E
330
1E
100
AcDbEntity
  8
KI2
100
AcDbLine
 10
478.8662559999999
 20
277.85001
 30
0.0
 11
478.776436
 21
277.7601899999999
 31
0.0
  0
LINE
  5
55F
330
1E
100
AcDbEntity
  8
KI2
100
AcDbLine
 10
478.5519469999999
 20
277.85001
 30
0.0
 11
478.53922
 21
277.837283
 31
0.0
  0
LINE
  5
560
330
1E
100
AcDbEntity
  8
KI1
100
AcDbLine
 10
483.7160459999999
 20
277.85001
 30
0.0
 11
480.50012
 21
277.85001
 31
0.0
  0
LINE
  5
561
330
1E
100
AcDbEntity
  8
KI1
100
AcDbLine
 10
483.7160459999999
 20
267.6500899999999
 30
0.0
 11
480.50012
 21
267.6500899999999
 31
0.0
  0
LINE
  5
562
330
1E
100
AcDbEntity
  8
KI2
100
AcDbLine
 10
478.5519469999999
 20
267.6500899999999
 30
0.0
 11
478.53922
 21
267.662817
 31
0.0
  0
LINE
  5
563
330
1E
100
AcDbEntity
  8
KI2
100
AcDbLine
 10
478.8662559999999
 20
267.6500899999999
 30
0.0
 11
478.776436
 21
267.739909
 31
0.0
  0
LINE
  5
564
330
1E
100
AcDbEntity
  8
KI2
100
AcDbLine
 10
479.180565
 20
267.6500899999999
 30
0.0
 11
479.0136519999999
 21
267.817002
 31
0.0
  0
LINE
  5
565
330
1E
100
AcDbEntity
  8
KI2
100
AcDbLine
 10
479.494874
 20
267.6500899999999
 30
0.0
 11
479.250868
 21
267.8940949999999
 31
0.0
  0
LINE
  5
566
330
1E
100
AcDbEntity
  8
KI2
100
AcDbLine
 10
479.809183
 20
267.6500899999999
 30
0.0
 11
479.4880839999999
 21
267.9711879999999
 31
0.0
  0
LINE
  5
567
330
1E
100
AcDbEntity
  8
KI2
100
AcDbLine
 10
480.1234919999999
 20
267.6500899999999
 30
0.0
 11
479.7253
 21
268.048281
 31
0.0
  0
LINE
  5
568
330
1E
100
AcDbEntity
  8
KI2
100
AcDbLine
 10
480.4378009999999
 20
267.6500899999999
 30
0.0
 11
479.9625159999999
 21
268.125374
 31
0.0
  0
LINE
  5
569
330
1E
100
AcDbEntity
  8
KI2
100
AcDbLine
 10
480.50012
 20
267.902079
 30
0.0
 11
480.199732
 21
268.202467
 31
0.0
  0
LINE
  5
56A
330
1E
100
AcDbEntity
  8
KI2
100
AcDbLine
 10
480.50012
 20
268.216388
 30
0.0
 11
480.436949
 21
268.2795599999999
 31
0.0
  0
LINE
  5
56B
330
1E
100
AcDbEntity
  8
KI2
100
AcDbLine
 10
475.408857
 20
267.6500899999999
 30
0.0
 11
475.358294
 21
267.7006529999999
 31
0.0
  0
LINE
  5
56C
330
1E
100
AcDbEntity
  8
KI2
100
AcDbLine
 10
475.723166
 20
267.6500899999999
 30
0.0
 11
475.564394
 21
267.808862
 31
0.0
  0
LINE
  5
56D
330
1E
100
AcDbEntity
  8
KI2
100
AcDbLine
 10
476.0374749999999
 20
267.6500899999999
 30
0.0
 11
475.770493
 21
267.917072
 31
0.0
  0
LINE
  5
56E
330
1E
100
AcDbEntity
  8
KI2
100
AcDbLine
 10
476.351784
 20
267.6500899999999
 30
0.0
 11
475.9765919999999
 21
268.025282
 31
0.0
  0
LINE
  5
56F
330
1E
100
AcDbEntity
  8
KI2
100
AcDbLine
 10
476.4999999999999
 20
267.816183
 30
0.0
 11
476.182691
 21
268.1334909999999
 31
0.0
  0
LINE
  5
570
330
1E
100
AcDbEntity
  8
KI2
100
AcDbLine
 10
476.4999999999999
 20
268.130492
 30
0.0
 11
476.388791
 21
268.2417009999999
 31
0.0
  0
LINE
  5
571
330
1E
100
AcDbEntity
  8
KI2
100
AcDbLine
 10
476.6660929999999
 20
267.6500899999999
 30
0.0
 11
476.625354
 21
267.690829
 31
0.0
  0
LINE
  5
572
330
1E
100
AcDbEntity
  8
KI2
100
AcDbLine
 10
476.9804019999999
 20
267.6500899999999
 30
0.0
 11
476.86257
 21
267.7679219999999
 31
0.0
  0
LINE
  5
573
330
1E
100
AcDbEntity
  8
KI2
100
AcDbLine
 10
477.294711
 20
267.6500899999999
 30
0.0
 11
477.099786
 21
267.8450149999999
 31
0.0
  0
LINE
  5
574
330
1E
100
AcDbEntity
  8
KI2
100
AcDbLine
 10
477.60902
 20
267.6500899999999
 30
0.0
 11
477.3370019999999
 21
267.922107
 31
0.0
  0
LINE
  5
575
330
1E
100
AcDbEntity
  8
KI2
100
AcDbLine
 10
477.923329
 20
267.6500899999999
 30
0.0
 11
477.5742179999999
 21
267.9991999999999
 31
0.0
  0
LINE
  5
576
330
1E
100
AcDbEntity
  8
KI2
100
AcDbLine
 10
478.237638
 20
267.6500899999999
 30
0.0
 11
477.811434
 21
268.076293
 31
0.0
  0
LINE
  5
577
330
1E
100
AcDbEntity
  8
KI2
100
AcDbLine
 10
478.50006
 20
267.701977
 30
0.0
 11
478.04865
 21
268.153386
 31
0.0
  0
LINE
  5
578
330
1E
100
AcDbEntity
  8
KI2
100
AcDbLine
 10
478.50006
 20
268.0162859999999
 30
0.0
 11
478.285866
 21
268.2304789999999
 31
0.0
  0
LINE
  5
579
330
1E
100
AcDbEntity
  8
KI1
100
AcDbLine
 10
483.497316
 20
265.55005
 30
0.0
 11
483.7160459999999
 21
267.6500899999999
 31
0.0
  0
ARC
  5
57A
330
1E
100
AcDbEntity
  8
KI1
100
AcDbCircle
 10
493.0
 20
281.25005
 30
0.0
 40
0.5
100
AcDbArc
 50
0.0
 51
90.0
  0
ARC
  5
57B
330
1E
100
AcDbEntity
  8
KI1
100
AcDbCircle
 10
493.0
 20
264.25005
 30
0.0
 40
0.5
100
AcDbArc
 50
270.0
 51
0.0
  0
LINE
  5
57C
330
1E
100
AcDbEntity
  8
KI1
100
AcDbLine
 10
491.6999999999999
 20
265.55005
 30
0.0
 11
483.497316
 21
265.55005
 31
0.0
  0
LINE
  5
57D
330
1E
100
AcDbEntity
  8
KI1
100
AcDbLine
 10
491.6999999999999
 20
265.55005
 30
0.0
 11
491.6999999999999
 21
279.9500499999999
 31
0.0
  0
LINE
  5
57E
330
1E
100
AcDbEntity
  8
KI1
100
AcDbLine
 10
480.50012
 20
267.6500899999999
 30
0.0
 11
475.2619909999999
 21
267.6500899999999
 31
0.0
  0
LINE
  5
57F
330
1E
100
AcDbEntity
  8
KI1
100
AcDbLine
 10
474.50012
 20
267.2500799999999
 30
0.0
 11
476.4999999999999
 21
268.30009
 31
0.0
  0
LINE
  5
580
330
1E
100
AcDbEntity
  8
KI1
100
AcDbLine
 10
476.4999999999999
 20
267.6500899999999
 30
0.0
 11
478.50006
 21
268.30009
 31
0.0
  0
LINE
  5
581
330
1E
100
AcDbEntity
  8
KI1
100
AcDbLine
 10
478.50006
 20
267.6500899999999
 30
0.0
 11
480.50012
 21
268.30009
 31
0.0
  0
LINE
  5
582
330
1E
100
AcDbEntity
  8
KI1
100
AcDbLine
 10
480.50012
 20
267.6500899999999
 30
0.0
 11
480.50012
 21
268.30009
 31
0.0
  0
LINE
  5
583
330
1E
100
AcDbEntity
  8
KI1
100
AcDbLine
 10
478.50006
 20
267.6500899999999
 30
0.0
 11
478.50006
 21
268.30009
 31
0.0
  0
LINE
  5
584
330
1E
100
AcDbEntity
  8
KI1
100
AcDbLine
 10
476.4999999999999
 20
267.6500899999999
 30
0.0
 11
476.4999999999999
 21
268.30009
 31
0.0
  0
LINE
  5
585
330
1E
100
AcDbEntity
  8
KI1
100
AcDbLine
 10
481.5000999999999
 20
263.7500499999999
 30
0.0
 11
481.7188299999999
 21
265.8500899999999
 31
0.0
  0
LINE
  5
586
330
1E
100
AcDbEntity
  8
KI1
100
AcDbLine
 10
481.7188299999999
 20
265.8500899999999
 30
0.0
 11
480.50012
 21
265.8500899999999
 31
0.0
  0
LINE
  5
587
330
1E
100
AcDbEntity
  8
KI1
100
AcDbLine
 10
476.4999999999999
 20
265.2000299999999
 30
0.0
 11
474.50012
 21
266.2500899999999
 31
0.0
  0
LINE
  5
588
330
1E
100
AcDbEntity
  8
KI1
100
AcDbLine
 10
480.50012
 20
265.2000299999999
 30
0.0
 11
478.50006
 21
265.8500899999999
 31
0.0
  0
LINE
  5
589
330
1E
100
AcDbEntity
  8
KI1
100
AcDbLine
 10
478.50006
 20
265.2000299999999
 30
0.0
 11
476.4999999999999
 21
265.8500899999999
 31
0.0
  0
LINE
  5
58A
330
1E
100
AcDbEntity
  8
KI1
100
AcDbLine
 10
480.50012
 20
265.2000299999999
 30
0.0
 11
480.50012
 21
265.8500899999999
 31
0.0
  0
LINE
  5
58B
330
1E
100
AcDbEntity
  8
KI1
100
AcDbLine
 10
478.50006
 20
265.2000299999999
 30
0.0
 11
478.50006
 21
265.8500899999999
 31
0.0
  0
LINE
  5
58C
330
1E
100
AcDbEntity
  8
KI1
100
AcDbLine
 10
476.4999999999999
 20
265.2000299999999
 30
0.0
 11
476.4999999999999
 21
265.8500899999999
 31
0.0
  0
LINE
  5
58D
330
1E
100
AcDbEntity
  8
KI1
100
AcDbLine
 10
474.50012
 20
266.2500899999999
 30
0.0
 11
474.50012
 21
267.2500799999999
 31
0.0
  0
LINE
  5
58E
330
1E
100
AcDbEntity
  8
KI1
100
AcDbLine
 10
493.0
 20
263.7500499999999
 30
0.0
 11
481.5000999999999
 21
263.7500499999999
 31
0.0
  0
LINE
  5
58F
330
1E
100
AcDbEntity
  8
KI1
100
AcDbLine
 10
493.5
 20
264.25005
 30
0.0
 11
493.5
 21
281.25005
 31
0.0
  0
LINE
  5
590
330
1E
100
AcDbEntity
  8
KI1
100
AcDbLine
 10
481.5
 20
268.15005
 30
0.0
 11
481.5
 21
277.35005
 31
0.0
  0
LINE
  5
591
330
1E
100
AcDbEntity
  8
KI1
100
AcDbLine
 10
473.5
 20
280.750049
 30
0.0
 11
473.5
 21
277.35005
 31
0.0
  0
LINE
  5
592
330
1E
100
AcDbEntity
  8
KI1
100
AcDbLine
 10
473.5
 20
268.15005
 30
0.0
 11
473.5
 21
264.7500509999999
 31
0.0
  0
LINE
  5
593
330
1E
100
AcDbEntity
  8
KI1
100
AcDbLine
 10
481.5
 20
268.15005
 30
0.0
 11
473.5
 21
268.15005
 31
0.0
  0
LINE
  5
594
330
1E
100
AcDbEntity
  8
KI1
100
AcDbLine
 10
481.5
 20
277.35005
 30
0.0
 11
473.5
 21
277.35005
 31
0.0
  0
LINE
  5
595
330
1E
100
AcDbEntity
  8
KI1
100
AcDbLine
 10
481.5
 20
280.750049
 30
0.0
 11
473.5
 21
280.750049
 31
0.0
  0
LINE
  5
596
330
1E
100
AcDbEntity
  8
KI1
100
AcDbLine
 10
481.5
 20
264.7500509999999
 30
0.0
 11
473.5
 21
264.7500509999999
 31
0.0
  0
LINE
  5
597
330
1E
100
AcDbEntity
  8
OS
100
AcDbLine
 10
479.193989
 20
268.15005
 30
0.0
 11
481.5
 21
270.4560609999999
 31
0.0
1001
ACAD
1010
0.0
1020
0.0
1030
0.0
  0
LINE
  5
598
330
1E
100
AcDbEntity
  8
KI1
100
AcDbLine
 10
672.0
 20
281.7500499999999
 30
0.0
 11
683.4999
 21
281.7500499999999
 31
0.0
  0
LINE
  5
599
330
1E
100
AcDbEntity
  8
KI1
100
AcDbLine
 10
673.2999999999999
 20
279.9500499999999
 30
0.0
 11
681.5026839999999
 21
279.9500499999999
 31
0.0
  0
LINE
  5
59A
330
1E
100
AcDbEntity
  8
KI1
100
AcDbLine
 10
690.4998799999999
 20
279.25001
 30
0.0
 11
690.4998799999999
 21
278.25002
 31
0.0
  0
LINE
  5
59B
330
1E
100
AcDbEntity
  8
KI1
100
AcDbLine
 10
688.4999999999999
 20
280.30007
 30
0.0
 11
688.4999999999999
 21
279.65001
 31
0.0
  0
LINE
  5
59C
330
1E
100
AcDbEntity
  8
KI1
100
AcDbLine
 10
686.49994
 20
280.30007
 30
0.0
 11
686.49994
 21
279.65001
 31
0.0
  0
LINE
  5
59D
330
1E
100
AcDbEntity
  8
KI1
100
AcDbLine
 10
684.4998799999999
 20
280.30007
 30
0.0
 11
684.4998799999999
 21
279.65001
 31
0.0
  0
LINE
  5
59E
330
1E
100
AcDbEntity
  8
KI1
100
AcDbLine
 10
686.49994
 20
280.30007
 30
0.0
 11
688.4999999999999
 21
279.65001
 31
0.0
  0
LINE
  5
59F
330
1E
100
AcDbEntity
  8
KI1
100
AcDbLine
 10
684.4998799999999
 20
280.30007
 30
0.0
 11
686.49994
 21
279.65001
 31
0.0
  0
LINE
  5
5A0
330
1E
100
AcDbEntity
  8
KI1
100
AcDbLine
 10
688.4999999999999
 20
280.30007
 30
0.0
 11
690.4998799999999
 21
279.25001
 31
0.0
  0
LINE
  5
5A1
330
1E
100
AcDbEntity
  8
KI1
100
AcDbLine
 10
683.2811699999999
 20
279.65001
 30
0.0
 11
684.4998799999999
 21
279.65001
 31
0.0
  0
LINE
  5
5A2
330
1E
100
AcDbEntity
  8
KI1
100
AcDbLine
 10
683.4999
 20
281.7500499999999
 30
0.0
 11
683.2811699999999
 21
279.65001
 31
0.0
  0
LINE
  5
5A3
330
1E
100
AcDbEntity
  8
KI1
100
AcDbLine
 10
688.4999999999999
 20
277.85001
 30
0.0
 11
688.4999999999999
 21
277.20001
 31
0.0
  0
LINE
  5
5A4
330
1E
100
AcDbEntity
  8
KI1
100
AcDbLine
 10
686.49994
 20
277.85001
 30
0.0
 11
686.49994
 21
277.20001
 31
0.0
  0
LINE
  5
5A5
330
1E
100
AcDbEntity
  8
KI1
100
AcDbLine
 10
684.4998799999999
 20
277.85001
 30
0.0
 11
684.4998799999999
 21
277.20001
 31
0.0
  0
LINE
  5
5A6
330
1E
100
AcDbEntity
  8
KI1
100
AcDbLine
 10
686.49994
 20
277.85001
 30
0.0
 11
684.4998799999999
 21
277.20001
 31
0.0
  0
LINE
  5
5A7
330
1E
100
AcDbEntity
  8
KI1
100
AcDbLine
 10
688.4999999999999
 20
277.85001
 30
0.0
 11
686.49994
 21
277.20001
 31
0.0
  0
LINE
  5
5A8
330
1E
100
AcDbEntity
  8
KI1
100
AcDbLine
 10
690.4998799999999
 20
278.25002
 30
0.0
 11
688.4999999999999
 21
277.20001
 31
0.0
  0
LINE
  5
5A9
330
1E
100
AcDbEntity
  8
KI1
100
AcDbLine
 10
684.4998799999999
 20
277.85001
 30
0.0
 11
689.738009
 21
277.85001
 31
0.0
  0
LINE
  5
5AA
330
1E
100
AcDbEntity
  8
KI1
100
AcDbLine
 10
681.5026839999999
 20
279.9500499999999
 30
0.0
 11
681.2839539999999
 21
277.85001
 31
0.0
  0
LINE
  5
5AB
330
1E
100
AcDbEntity
  8
KI2
100
AcDbLine
 10
688.333907
 20
277.85001
 30
0.0
 11
688.374646
 21
277.809271
 31
0.0
  0
LINE
  5
5AC
330
1E
100
AcDbEntity
  8
KI2
100
AcDbLine
 10
688.019598
 20
277.85001
 30
0.0
 11
688.13743
 21
277.7321779999999
 31
0.0
  0
LINE
  5
5AD
330
1E
100
AcDbEntity
  8
KI2
100
AcDbLine
 10
687.7052889999999
 20
277.85001
 30
0.0
 11
687.9002139999999
 21
277.655085
 31
0.0
  0
LINE
  5
5AE
330
1E
100
AcDbEntity
  8
KI2
100
AcDbLine
 10
687.3909799999999
 20
277.85001
 30
0.0
 11
687.662998
 21
277.577992
 31
0.0
  0
LINE
  5
5AF
330
1E
100
AcDbEntity
  8
KI2
100
AcDbLine
 10
687.076671
 20
277.85001
 30
0.0
 11
687.425782
 21
277.5008989999999
 31
0.0
  0
LINE
  5
5B0
330
1E
100
AcDbEntity
  8
KI2
100
AcDbLine
 10
686.762362
 20
277.85001
 30
0.0
 11
687.188566
 21
277.423807
 31
0.0
  0
LINE
  5
5B1
330
1E
100
AcDbEntity
  8
KI2
100
AcDbLine
 10
686.49994
 20
277.7981229999999
 30
0.0
 11
686.95135
 21
277.346714
 31
0.0
  0
LINE
  5
5B2
330
1E
100
AcDbEntity
  8
KI2
100
AcDbLine
 10
686.49994
 20
277.4838139999999
 30
0.0
 11
686.7141339999999
 21
277.2696209999999
 31
0.0
  0
LINE
  5
5B3
330
1E
100
AcDbEntity
  8
KI2
100
AcDbLine
 10
689.5911429999999
 20
277.85001
 30
0.0
 11
689.641706
 21
277.799447
 31
0.0
  0
LINE
  5
5B4
330
1E
100
AcDbEntity
  8
KI2
100
AcDbLine
 10
689.2768339999999
 20
277.85001
 30
0.0
 11
689.4356059999999
 21
277.691237
 31
0.0
  0
LINE
  5
5B5
330
1E
100
AcDbEntity
  8
KI2
100
AcDbLine
 10
688.962525
 20
277.85001
 30
0.0
 11
689.229507
 21
277.5830279999999
 31
0.0
  0
LINE
  5
5B6
330
1E
100
AcDbEntity
  8
KI2
100
AcDbLine
 10
688.648216
 20
277.85001
 30
0.0
 11
689.0234079999999
 21
277.474818
 31
0.0
  0
LINE
  5
5B7
330
1E
100
AcDbEntity
  8
KI2
100
AcDbLine
 10
688.4999999999999
 20
277.683917
 30
0.0
 11
688.817309
 21
277.3666079999999
 31
0.0
  0
LINE
  5
5B8
330
1E
100
AcDbEntity
  8
KI2
100
AcDbLine
 10
688.4999999999999
 20
277.369608
 30
0.0
 11
688.611209
 21
277.258399
 31
0.0
  0
LINE
  5
5B9
330
1E
100
AcDbEntity
  8
KI2
100
AcDbLine
 10
686.448053
 20
277.85001
 30
0.0
 11
686.4607799999999
 21
277.837283
 31
0.0
  0
LINE
  5
5BA
330
1E
100
AcDbEntity
  8
KI2
100
AcDbLine
 10
686.133744
 20
277.85001
 30
0.0
 11
686.223564
 21
277.7601899999999
 31
0.0
  0
LINE
  5
5BB
330
1E
100
AcDbEntity
  8
KI2
100
AcDbLine
 10
685.8194349999999
 20
277.85001
 30
0.0
 11
685.986348
 21
277.683097
 31
0.0
  0
LINE
  5
5BC
330
1E
100
AcDbEntity
  8
KI2
100
AcDbLine
 10
685.505126
 20
277.85001
 30
0.0
 11
685.749132
 21
277.6060049999999
 31
0.0
  0
LINE
  5
5BD
330
1E
100
AcDbEntity
  8
KI2
100
AcDbLine
 10
685.190817
 20
277.85001
 30
0.0
 11
685.511916
 21
277.528912
 31
0.0
  0
LINE
  5
5BE
330
1E
100
AcDbEntity
  8
KI2
100
AcDbLine
 10
684.876508
 20
277.85001
 30
0.0
 11
685.2747
 21
277.451819
 31
0.0
  0
LINE
  5
5BF
330
1E
100
AcDbEntity
  8
KI2
100
AcDbLine
 10
684.562199
 20
277.85001
 30
0.0
 11
685.0374839999999
 21
277.3747259999999
 31
0.0
  0
LINE
  5
5C0
330
1E
100
AcDbEntity
  8
KI2
100
AcDbLine
 10
684.4998799999999
 20
277.59802
 30
0.0
 11
684.8002679999999
 21
277.297633
 31
0.0
  0
LINE
  5
5C1
330
1E
100
AcDbEntity
  8
KI2
100
AcDbLine
 10
684.4998799999999
 20
277.2837109999999
 30
0.0
 11
684.5630509999999
 21
277.2205399999999
 31
0.0
  0
LINE
  5
5C2
330
1E
100
AcDbEntity
  8
KI1
100
AcDbLine
 10
681.2839539999999
 20
277.85001
 30
0.0
 11
684.4998799999999
 21
277.85001
 31
0.0
  0
LINE
  5
5C3
330
1E
100
AcDbEntity
  8
KI1
100
AcDbLine
 10
681.2839539999999
 20
267.6500899999999
 30
0.0
 11
684.4998799999999
 21
267.6500899999999
 31
0.0
  0
LINE
  5
5C4
330
1E
100
AcDbEntity
  8
KI2
100
AcDbLine
 10
684.4998799999999
 20
268.216388
 30
0.0
 11
684.5630509999999
 21
268.2795599999999
 31
0.0
  0
LINE
  5
5C5
330
1E
100
AcDbEntity
  8
KI2
100
AcDbLine
 10
684.4998799999999
 20
267.902079
 30
0.0
 11
684.8002679999999
 21
268.202467
 31
0.0
  0
LINE
  5
5C6
330
1E
100
AcDbEntity
  8
KI2
100
AcDbLine
 10
684.562199
 20
267.6500899999999
 30
0.0
 11
685.0374839999999
 21
268.125374
 31
0.0
  0
LINE
  5
5C7
330
1E
100
AcDbEntity
  8
KI2
100
AcDbLine
 10
684.876508
 20
267.6500899999999
 30
0.0
 11
685.2747
 21
268.048281
 31
0.0
  0
LINE
  5
5C8
330
1E
100
AcDbEntity
  8
KI2
100
AcDbLine
 10
685.190817
 20
267.6500899999999
 30
0.0
 11
685.511916
 21
267.9711879999999
 31
0.0
  0
LINE
  5
5C9
330
1E
100
AcDbEntity
  8
KI2
100
AcDbLine
 10
685.505126
 20
267.6500899999999
 30
0.0
 11
685.749132
 21
267.8940949999999
 31
0.0
  0
LINE
  5
5CA
330
1E
100
AcDbEntity
  8
KI2
100
AcDbLine
 10
685.8194349999999
 20
267.6500899999999
 30
0.0
 11
685.986348
 21
267.817002
 31
0.0
  0
LINE
  5
5CB
330
1E
100
AcDbEntity
  8
KI2
100
AcDbLine
 10
686.133744
 20
267.6500899999999
 30
0.0
 11
686.223564
 21
267.739909
 31
0.0
  0
LINE
  5
5CC
330
1E
100
AcDbEntity
  8
KI2
100
AcDbLine
 10
686.448053
 20
267.6500899999999
 30
0.0
 11
686.4607799999999
 21
267.662817
 31
0.0
  0
LINE
  5
5CD
330
1E
100
AcDbEntity
  8
KI2
100
AcDbLine
 10
688.4999999999999
 20
268.130492
 30
0.0
 11
688.611209
 21
268.2417009999999
 31
0.0
  0
LINE
  5
5CE
330
1E
100
AcDbEntity
  8
KI2
100
AcDbLine
 10
688.4999999999999
 20
267.816183
 30
0.0
 11
688.817309
 21
268.1334909999999
 31
0.0
  0
LINE
  5
5CF
330
1E
100
AcDbEntity
  8
KI2
100
AcDbLine
 10
688.648216
 20
267.6500899999999
 30
0.0
 11
689.0234079999999
 21
268.025282
 31
0.0
  0
LINE
  5
5D0
330
1E
100
AcDbEntity
  8
KI2
100
AcDbLine
 10
688.962525
 20
267.6500899999999
 30
0.0
 11
689.229507
 21
267.917072
 31
0.0
  0
LINE
  5
5D1
330
1E
100
AcDbEntity
  8
KI2
100
AcDbLine
 10
689.2768339999999
 20
267.6500899999999
 30
0.0
 11
689.4356059999999
 21
267.808862
 31
0.0
  0
LINE
  5
5D2
330
1E
100
AcDbEntity
  8
KI2
100
AcDbLine
 10
689.5911429999999
 20
267.6500899999999
 30
0.0
 11
689.641706
 21
267.7006529999999
 31
0.0
  0
LINE
  5
5D3
330
1E
100
AcDbEntity
  8
KI2
100
AcDbLine
 10
686.49994
 20
268.0162859999999
 30
0.0
 11
686.7141339999999
 21
268.2304789999999
 31
0.0
  0
LINE
  5
5D4
330
1E
100
AcDbEntity
  8
KI2
100
AcDbLine
 10
686.49994
 20
267.701977
 30
0.0
 11
686.95135
 21
268.153386
 31
0.0
  0
LINE
  5
5D5
330
1E
100
AcDbEntity
  8
KI2
100
AcDbLine
 10
686.762362
 20
267.6500899999999
 30
0.0
 11
687.188566
 21
268.076293
 31
0.0
  0
LINE
  5
5D6
330
1E
100
AcDbEntity
  8
KI2
100
AcDbLine
 10
687.076671
 20
267.6500899999999
 30
0.0
 11
687.425782
 21
267.9991999999999
 31
0.0
  0
LINE
  5
5D7
330
1E
100
AcDbEntity
  8
KI2
100
AcDbLine
 10
687.3909799999999
 20
267.6500899999999
 30
0.0
 11
687.662998
 21
267.922107
 31
0.0
  0
LINE
  5
5D8
330
1E
100
AcDbEntity
  8
KI2
100
AcDbLine
 10
687.7052889999999
 20
267.6500899999999
 30
0.0
 11
687.9002139999999
 21
267.8450149999999
 31
0.0
  0
LINE
  5
5D9
330
1E
100
AcDbEntity
  8
KI2
100
AcDbLine
 10
688.019598
 20
267.6500899999999
 30
0.0
 11
688.13743
 21
267.7679219999999
 31
0.0
  0
LINE
  5
5DA
330
1E
100
AcDbEntity
  8
KI2
100
AcDbLine
 10
688.333907
 20
267.6500899999999
 30
0.0
 11
688.374646
 21
267.690829
 31
0.0
  0
LINE
  5
5DB
330
1E
100
AcDbEntity
  8
KI1
100
AcDbLine
 10
681.5026839999999
 20
265.55005
 30
0.0
 11
681.2839539999999
 21
267.6500899999999
 31
0.0
  0
ARC
  5
5DC
330
1E
100
AcDbEntity
  8
KI1
100
AcDbCircle
 10
672.0
 20
281.25005
 30
0.0
 40
0.5
100
AcDbArc
 50
90.0
 51
180.0
  0
ARC
  5
5DD
330
1E
100
AcDbEntity
  8
KI1
100
AcDbCircle
 10
672.0
 20
264.25005
 30
0.0
 40
0.5
100
AcDbArc
 50
180.0
 51
270.0
  0
LINE
  5
5DE
330
1E
100
AcDbEntity
  8
KI1
100
AcDbLine
 10
673.2999999999999
 20
265.55005
 30
0.0
 11
681.5026839999999
 21
265.55005
 31
0.0
  0
LINE
  5
5DF
330
1E
100
AcDbEntity
  8
KI1
100
AcDbLine
 10
673.2999999999999
 20
265.55005
 30
0.0
 11
673.2999999999999
 21
279.9500499999999
 31
0.0
  0
LINE
  5
5E0
330
1E
100
AcDbEntity
  8
KI1
100
AcDbLine
 10
684.4998799999999
 20
267.6500899999999
 30
0.0
 11
689.738009
 21
267.6500899999999
 31
0.0
  0
LINE
  5
5E1
330
1E
100
AcDbEntity
  8
KI1
100
AcDbLine
 10
690.4998799999999
 20
267.2500799999999
 30
0.0
 11
688.4999999999999
 21
268.30009
 31
0.0
  0
LINE
  5
5E2
330
1E
100
AcDbEntity
  8
KI1
100
AcDbLine
 10
688.4999999999999
 20
267.6500899999999
 30
0.0
 11
686.49994
 21
268.30009
 31
0.0
  0
LINE
  5
5E3
330
1E
100
AcDbEntity
  8
KI1
100
AcDbLine
 10
686.49994
 20
267.6500899999999
 30
0.0
 11
684.4998799999999
 21
268.30009
 31
0.0
  0
LINE
  5
5E4
330
1E
100
AcDbEntity
  8
KI1
100
AcDbLine
 10
684.4998799999999
 20
267.6500899999999
 30
0.0
 11
684.4998799999999
 21
268.30009
 31
0.0
  0
LINE
  5
5E5
330
1E
100
AcDbEntity
  8
KI1
100
AcDbLine
 10
686.49994
 20
267.6500899999999
 30
0.0
 11
686.49994
 21
268.30009
 31
0.0
  0
LINE
  5
5E6
330
1E
100
AcDbEntity
  8
KI1
100
AcDbLine
 10
688.4999999999999
 20
267.6500899999999
 30
0.0
 11
688.4999999999999
 21
268.30009
 31
0.0
  0
LINE
  5
5E7
330
1E
100
AcDbEntity
  8
KI1
100
AcDbLine
 10
683.4999
 20
263.7500499999999
 30
0.0
 11
683.2811699999999
 21
265.8500899999999
 31
0.0
  0
LINE
  5
5E8
330
1E
100
AcDbEntity
  8
KI1
100
AcDbLine
 10
683.2811699999999
 20
265.8500899999999
 30
0.0
 11
684.4998799999999
 21
265.8500899999999
 31
0.0
  0
LINE
  5
5E9
330
1E
100
AcDbEntity
  8
KI1
100
AcDbLine
 10
688.4999999999999
 20
265.2000299999999
 30
0.0
 11
690.4998799999999
 21
266.2500899999999
 31
0.0
  0
LINE
  5
5EA
330
1E
100
AcDbEntity
  8
KI1
100
AcDbLine
 10
684.4998799999999
 20
265.2000299999999
 30
0.0
 11
686.49994
 21
265.8500899999999
 31
0.0
  0
LINE
  5
5EB
330
1E
100
AcDbEntity
  8
KI1
100
AcDbLine
 10
686.49994
 20
265.2000299999999
 30
0.0
 11
688.4999999999999
 21
265.8500899999999
 31
0.0
  0
LINE
  5
5EC
330
1E
100
AcDbEntity
  8
KI1
100
AcDbLine
 10
684.4998799999999
 20
265.2000299999999
 30
0.0
 11
684.4998799999999
 21
265.8500899999999
 31
0.0
  0
LINE
  5
5ED
330
1E
100
AcDbEntity
  8
KI1
100
AcDbLine
 10
686.49994
 20
265.2000299999999
 30
0.0
 11
686.49994
 21
265.8500899999999
 31
0.0
  0
LINE
  5
5EE
330
1E
100
AcDbEntity
  8
KI1
100
AcDbLine
 10
688.4999999999999
 20
265.2000299999999
 30
0.0
 11
688.4999999999999
 21
265.8500899999999
 31
0.0
  0
LINE
  5
5EF
330
1E
100
AcDbEntity
  8
KI1
100
AcDbLine
 10
690.4998799999999
 20
266.2500899999999
 30
0.0
 11
690.4998799999999
 21
267.2500799999999
 31
0.0
  0
LINE
  5
5F0
330
1E
100
AcDbEntity
  8
KI1
100
AcDbLine
 10
672.0
 20
263.7500499999999
 30
0.0
 11
683.4999
 21
263.7500499999999
 31
0.0
  0
LINE
  5
5F1
330
1E
100
AcDbEntity
  8
KI1
100
AcDbLine
 10
671.4999999999999
 20
264.25005
 30
0.0
 11
671.4999999999999
 21
281.25005
 31
0.0
  0
LINE
  5
5F2
330
1E
100
AcDbEntity
  8
KI1
100
AcDbLine
 10
683.4999999999999
 20
264.7500509999999
 30
0.0
 11
691.5
 21
264.7500509999999
 31
0.0
  0
LINE
  5
5F3
330
1E
100
AcDbEntity
  8
KI1
100
AcDbLine
 10
683.4999999999999
 20
280.750049
 30
0.0
 11
691.5
 21
280.750049
 31
0.0
  0
LINE
  5
5F4
330
1E
100
AcDbEntity
  8
KI1
100
AcDbLine
 10
683.4999999999999
 20
277.35005
 30
0.0
 11
691.5
 21
277.35005
 31
0.0
  0
LINE
  5
5F5
330
1E
100
AcDbEntity
  8
KI1
100
AcDbLine
 10
683.4999999999999
 20
268.15005
 30
0.0
 11
691.5
 21
268.15005
 31
0.0
  0
LINE
  5
5F6
330
1E
100
AcDbEntity
  8
KI1
100
AcDbLine
 10
691.5
 20
268.15005
 30
0.0
 11
691.5
 21
264.7500509999999
 31
0.0
  0
LINE
  5
5F7
330
1E
100
AcDbEntity
  8
KI1
100
AcDbLine
 10
691.5
 20
280.750049
 30
0.0
 11
691.5
 21
277.35005
 31
0.0
  0
LINE
  5
5F8
330
1E
100
AcDbEntity
  8
KI1
100
AcDbLine
 10
683.4999999999999
 20
268.15005
 30
0.0
 11
683.4999999999999
 21
277.35005
 31
0.0
  0
LINE
  5
5F9
330
1E
100
AcDbEntity
  8
OS
100
AcDbLine
 10
685.806011
 20
268.15005
 30
0.0
 11
683.4999999999999
 21
270.4560609999999
 31
0.0
1001
ACAD
1010
0.0
1020
0.0
1030
0.0
  0
TEXT
  5
5FA
330
1E
100
AcDbEntity
  8
WK
100
AcDbText
 10
786.2857159999999
 20
579.75
 30
0.0
 40
4.0
  1
大栄建材株式会社
 41
0.8199999999999999
100
AcDbText
  0
LINE
  5
5FB
330
1E
100
AcDbEntity
  8
KI1
100
AcDbLine
 10
387.0
 20
446.75
 30
0.0
 11
389.4999999999999
 21
449.2499999999999
 31
0.0
1001
GENIUS_GENFIL_13
1070
     0
1040
2.5
1040
2.5
1040
20.0
1040
0.0
1002
{
1002
}
1001
GENIUS_GENODEF_13
1002
{
1000
HIER
1070
     0
1002
}
1002
{
1000
MANEDIT
1070
     0
1002
}
1002
{
1000
NOSEL
1070
     0
1002
}
1002
{
1000
BEHIND
1070
     0
1002
}
1002
{
1000
OTHER
1070
     0
1002
}
1002
{
1000
REACTOR
1002
}
1001
GENIUS_GENOBJ-N-CHA_13
1002
{
1000
OWNER
1000
GEN
1002
}
  0
LINE
  5
5FC
330
1E
100
AcDbEntity
  8
KI1
100
AcDbLine
 10
478.5
 20
333.25
 30
0.0
 11
481.5
 21
330.25
 31
0.0
1001
GENIUS_GENFIL_13
1070
     0
1040
3.0
1040
3.0
1040
20.0
1040
0.0
1002
{
1002
}
1001
GENIUS_GENOBJ-N-CHA_13
1002
{
1000
OWNER
1000
GEN
1002
}
1001
GENIUS_GENODEF_13
1002
{
1000
HIER
1070
     0
1002
}
1002
{
1000
MANEDIT
1070
     0
1002
}
1002
{
1000
NOSEL
1070
     0
1002
}
1002
{
1000
BEHIND
1070
     0
1002
}
1002
{
1000
OTHER
1070
     0
1002
}
1002
{
1000
REACTOR
1002
}
  0
LINE
  5
5FD
330
1E
100
AcDbEntity
  8
KI1
100
AcDbLine
 10
478.5
 20
220.25
 30
0.0
 11
481.5
 21
223.2499999999999
 31
0.0
1001
GENIUS_GENFIL_13
1070
     0
1040
3.0
1040
3.0
1040
20.0
1040
0.0
1002
{
1002
}
1001
GENIUS_GENODEF_13
1002
{
1000
HIER
1070
     0
1002
}
1002
{
1000
MANEDIT
1070
     0
1002
}
1002
{
1000
NOSEL
1070
     0
1002
}
1002
{
1000
BEHIND
1070
     0
1002
}
1002
{
1000
OTHER
1070
     0
1002
}
1002
{
1000
REACTOR
1002
}
1001
GENIUS_GENOBJ-N-CHA_13
1002
{
1000
OWNER
1000
GEN
1002
}
  0
LINE
  5
5FE
330
1E
100
AcDbEntity
  8
KI1
100
AcDbLine
 10
686.5
 20
333.25
 30
0.0
 11
683.4999999999999
 21
330.25
 31
0.0
1001
GENIUS_GENFIL_13
1070
     0
1040
3.0
1040
3.0
1040
20.0
1040
0.0
1002
{
1002
}
1001
GENIUS_GENODEF_13
1002
{
1000
HIER
1070
     0
1002
}
1002
{
1000
MANEDIT
1070
     0
1002
}
1002
{
1000
NOSEL
1070
     0
1002
}
1002
{
1000
BEHIND
1070
     0
1002
}
1002
{
1000
OTHER
1070
     0
1002
}
1002
{
1000
REACTOR
1002
}
1001
GENIUS_GENOBJ-N-CHA_13
1002
{
1000
OWNER
1000
GEN
1002
}
  0
LINE
  5
5FF
330
1E
100
AcDbEntity
  8
0
100
AcDbLine
 10
686.5
 20
220.25
 30
0.0
 11
683.4999999999999
 21
223.2499999999999
 31
0.0
1001
GENIUS_GENFIL_13
1070
     0
1040
3.0
1040
3.0
1040
20.0
1040
0.0
1002
{
1002
}
1001
GENIUS_GENODEF_13
1002
{
1000
HIER
1070
     0
1002
}
1002
{
1000
MANEDIT
1070
     0
1002
}
1002
{
1000
NOSEL
1070
     0
1002
}
1002
{
1000
BEHIND
1070
     0
1002
}
1002
{
1000
OTHER
1070
     0
1002
}
1002
{
1000
REACTOR
1002
}
1001
GENIUS_GENOBJ-N-CHA_13
1002
{
1000
OWNER
1000
GEN
1002
}
  0
LINE
  5
600
330
1E
100
AcDbEntity
  8
TS
100
AcDbLine
 10
480.0
 20
228.25
 30
0.0
 11
480.0
 21
231.7499999999999
 31
0.0
  0
LINE
  5
601
330
1E
100
AcDbEntity
  8
TS
100
AcDbLine
 10
480.4999999999999
 20
228.25
 30
0.0
 11
480.4999999999999
 21
231.7499999999999
 31
0.0
  0
LINE
  5
602
330
1E
100
AcDbEntity
  8
KI2
100
AcDbLine
 10
480.4999999999999
 20
221.1367509999999
 30
0.0
 11
480.4999999999999
 21
222.25
 31
0.0
  0
LINE
  5
603
330
1E
100
AcDbEntity
  8
KI2
100
AcDbLine
 10
481.5
 20
221.1367509999999
 30
0.0
 11
481.5
 21
223.2499999999999
 31
0.0
  0
LINE
  5
604
330
1E
100
AcDbEntity
  8
TS
100
AcDbLine
 10
480.4999999999999
 20
228.25
 30
0.0
 11
480.0
 21
228.25
 31
0.0
  0
ARC
  5
605
330
1E
100
AcDbEntity
  8
KI2
100
AcDbCircle
 10
479.0
 20
221.1367509999999
 30
0.0
 40
1.5
100
AcDbArc
 50
300.0
 51
0.0
  0
ARC
  5
606
330
1E
100
AcDbEntity
  8
KI2
100
AcDbCircle
 10
479.0
 20
221.1367509999999
 30
0.0
 40
2.5
100
AcDbArc
 50
300.0
 51
0.0
  0
LINE
  5
607
330
1E
100
AcDbEntity
  8
KI2
100
AcDbLine
 10
478.5
 20
219.116025
 30
0.0
 11
479.75
 21
219.8377129999999
 31
0.0
  0
LINE
  5
608
330
1E
100
AcDbEntity
  8
KI2
100
AcDbLine
 10
479.0
 20
218.25
 30
0.0
 11
480.25
 21
218.971688
 31
0.0
  0
LINE
  5
609
330
1E
100
AcDbEntity
  8
KI2
100
AcDbLine
 10
479.0
 20
218.25
 30
0.0
 11
478.5
 21
219.116025
 31
0.0
  0
LINE
  5
60A
330
1E
100
AcDbEntity
  8
TS
100
AcDbLine
 10
480.4999999999999
 20
231.7499999999999
 30
0.0
 11
480.0
 21
231.7499999999999
 31
0.0
  0
LINE
  5
60B
330
1E
100
AcDbEntity
  8
TS
100
AcDbLine
 10
479.8
 20
231.7499999999999
 30
0.0
 11
466.8
 21
231.7499999999999
 31
0.0
  0
LINE
  5
60C
330
1E
100
AcDbEntity
  8
TS
100
AcDbLine
 10
479.8
 20
232.25
 30
0.0
 11
479.8
 21
231.7499999999999
 31
0.0
  0
LINE
  5
60D
330
1E
100
AcDbEntity
  8
TS
100
AcDbLine
 10
466.3
 20
255.25
 30
0.0
 11
466.3
 21
232.25
 31
0.0
  0
ARC
  5
60E
330
1E
100
AcDbEntity
  8
TS
100
AcDbCircle
 10
466.8
 20
232.25
 30
0.0
 40
0.5
100
AcDbArc
 50
180.0
 51
270.0
  0
LINE
  5
60F
330
1E
100
AcDbEntity
  8
TS
100
AcDbLine
 10
480.0
 20
233.729121
 30
0.0
 11
480.0
 21
231.7499999999999
 31
0.0
  0
LINE
  5
610
330
1E
100
AcDbEntity
  8
TS
100
AcDbLine
 10
479.8
 20
232.25
 30
0.0
 11
480.0
 21
232.25
 31
0.0
  0
LINE
  5
611
330
1E
100
AcDbEntity
  8
TS
100
AcDbLine
 10
479.8
 20
255.75
 30
0.0
 11
466.8
 21
255.75
 31
0.0
  0
LINE
  5
612
330
1E
100
AcDbEntity
  8
TS
100
AcDbLine
 10
479.8
 20
255.75
 30
0.0
 11
479.8
 21
255.25
 31
0.0
  0
LINE
  5
613
330
1E
100
AcDbEntity
  8
TS
100
AcDbLine
 10
480.0
 20
255.75
 30
0.0
 11
480.0
 21
253.7708789999999
 31
0.0
  0
LINE
  5
614
330
1E
100
AcDbEntity
  8
TS
100
AcDbLine
 10
479.8
 20
255.25
 30
0.0
 11
480.0
 21
255.25
 31
0.0
  0
LINE
  5
615
330
1E
100
AcDbEntity
  8
TS
100
AcDbLine
 10
480.4999999999999
 20
255.75
 30
0.0
 11
480.0
 21
255.75
 31
0.0
  0
LINE
  5
616
330
1E
100
AcDbEntity
  8
TS
100
AcDbLine
 10
480.0
 20
258.25
 30
0.0
 11
480.4999999999999
 21
258.25
 31
0.0
  0
LINE
  5
617
330
1E
100
AcDbEntity
  8
TS
100
AcDbLine
 10
480.4999999999999
 20
255.75
 30
0.0
 11
480.4999999999999
 21
258.25
 31
0.0
  0
LINE
  5
618
330
1E
100
AcDbEntity
  8
TS
100
AcDbLine
 10
480.0
 20
255.75
 30
0.0
 11
480.0
 21
258.25
 31
0.0
  0
LINE
  5
619
330
1E
100
AcDbEntity
  8
TS
100
AcDbLine
 10
480.0
 20
258.25
 30
0.0
 11
480.0
 21
257.25
 31
0.0
  0
LINE
  5
61A
330
1E
100
AcDbEntity
  8
TS
100
AcDbLine
 10
480.4999999999999
 20
258.25
 30
0.0
 11
480.4999999999999
 21
257.25
 31
0.0
  0
LINE
  5
61B
330
1E
100
AcDbEntity
  8
TS
100
AcDbLine
 10
481.5
 20
258.25
 30
0.0
 11
480.4999999999999
 21
258.25
 31
0.0
  0
LINE
  5
61C
330
1E
100
AcDbEntity
  8
TS
100
AcDbLine
 10
480.4999999999999
 20
255.75
 30
0.0
 11
480.4999999999999
 21
258.25
 31
0.0
  0
ARC
  5
61D
330
1E
100
AcDbEntity
  8
TS
100
AcDbCircle
 10
466.8
 20
255.25
 30
0.0
 40
0.5
100
AcDbArc
 50
90.0
 51
180.0
  0
LINE
  5
61E
330
1E
100
AcDbEntity
  8
TS
100
AcDbLine
 10
480.4999999999999
 20
222.25
 30
0.0
 11
480.4999999999999
 21
258.25
 31
0.0
  0
LINE
  5
61F
330
1E
100
AcDbEntity
  8
TS
100
AcDbLine
 10
481.5
 20
223.2499999999999
 30
0.0
 11
481.5
 21
258.25
 31
0.0
  0
TEXT
  5
620
330
1E
100
AcDbEntity
  8
MJ
100
AcDbText
 10
637.5
 20
42.25
 30
0.0
 40
7.0
  1
ｋｄ０１ａ０２
 41
0.8299999999999998
100
AcDbText
  0
TEXT
  5
621
330
1E
100
AcDbEntity
  8
MJ
100
AcDbText
 10
637.5
 20
51.25
 30
0.0
 40
7.0
  1
たて横断面
 41
0.8299999999999998
100
AcDbText
  0
TEXT
  5
622
330
1E
100
AcDbEntity
  8
MJ
100
AcDbText
 10
637.5
 20
60.25
 30
0.0
 40
7.0
  1
木製枠　枠見込み１１３ｍｍ（ノンケーシング枠）
 41
0.8299999999999998
100
AcDbText
  0
TEXT
  5
623
330
1E
100
AcDbEntity
  8
MJ
100
AcDbText
 10
637.5
 20
78.25
 30
0.0
 40
7.0
  1
室内ドア　片開きドア・トイレドア
 41
0.8299999999999998
100
AcDbText
  0
TEXT
  5
624
330
1E
100
AcDbEntity
  8
MJ
100
AcDbText
 10
637.5
 20
69.25
 30
0.0
 40
7.0
  1
機能ドア　ペットドア
 41
0.8299999999999998
100
AcDbText
  0
LINE
  5
625
330
1E
100
AcDbEntity
  8
OS
100
AcDbLine
 10
452.791414
 20
434.25
 30
0.0
 11
467.7914139999999
 21
449.2499999999999
 31
0.0
1001
ACAD
1010
0.0
1020
0.0
1030
0.0
1001
GENIUS_GENOBJ-N-HTC_13
1002
{
1000
OWNER
1000
GEN
1002
}
1001
GENIUS_GENODEF_13
1002
{
1000
HIER
1070
     0
1002
}
1002
{
1000
MANEDIT
1070
     0
1002
}
1002
{
1000
NOSEL
1070
     0
1002
}
1002
{
1000
BEHIND
1070
     0
1002
}
1002
{
1000
OTHER
1070
     0
1002
}
1002
{
1000
REACTOR
1002
}
1001
GENIUS_GENHATCH_13
1002
{
1000
DATA
1040
0.0
1042
0.5
1000
ANSI31
1070
     0
1011
443.952933
1021
443.5842889999999
1031
0.0
1002
}
1002
{
1000
UCS
1010
0.0
1020
0.0
1030
0.0
1010
1.0
1020
0.0
1030
0.0
1010
0.0
1020
1.0
1030
0.0
1002
}
  0
LINE
  5
626
330
1E
100
AcDbEntity
  8
OS
100
AcDbLine
 10
462.6909089999999
 20
434.25
 30
0.0
 11
477.690909
 21
449.2499999999999
 31
0.0
1001
ACAD
1010
0.0
1020
0.0
1030
0.0
1001
GENIUS_GENOBJ-N-HTC_13
1002
{
1000
OWNER
1000
GEN
1002
}
1001
GENIUS_GENODEF_13
1002
{
1000
HIER
1070
     0
1002
}
1002
{
1000
MANEDIT
1070
     0
1002
}
1002
{
1000
NOSEL
1070
     0
1002
}
1002
{
1000
BEHIND
1070
     0
1002
}
1002
{
1000
OTHER
1070
     0
1002
}
1002
{
1000
REACTOR
1002
}
1001
GENIUS_GENHATCH_13
1002
{
1000
DATA
1040
0.0
1042
0.5
1000
ANSI31
1070
     0
1011
453.852428
1021
443.5842889999999
1031
0.0
1002
}
1002
{
1000
UCS
1010
0.0
1020
0.0
1030
0.0
1010
1.0
1020
0.0
1030
0.0
1010
0.0
1020
1.0
1030
0.0
1002
}
  0
LINE
  5
627
330
1E
100
AcDbEntity
  8
OS
100
AcDbLine
 10
472.5904039999999
 20
434.25
 30
0.0
 11
487.5904039999999
 21
449.2499999999999
 31
0.0
1001
ACAD
1010
0.0
1020
0.0
1030
0.0
1001
GENIUS_GENOBJ-N-HTC_13
1002
{
1000
OWNER
1000
GEN
1002
}
1001
GENIUS_GENODEF_13
1002
{
1000
HIER
1070
     0
1002
}
1002
{
1000
MANEDIT
1070
     0
1002
}
1002
{
1000
NOSEL
1070
     0
1002
}
1002
{
1000
BEHIND
1070
     0
1002
}
1002
{
1000
OTHER
1070
     0
1002
}
1002
{
1000
REACTOR
1002
}
1001
GENIUS_GENHATCH_13
1002
{
1000
DATA
1040
0.0
1042
0.5
1000
ANSI31
1070
     0
1011
463.751923
1021
443.5842889999999
1031
0.0
1002
}
1002
{
1000
UCS
1010
0.0
1020
0.0
1030
0.0
1010
1.0
1020
0.0
1030
0.0
1010
0.0
1020
1.0
1030
0.0
1002
}
  0
LINE
  5
628
330
1E
100
AcDbEntity
  8
OS
100
AcDbLine
 10
482.489899
 20
434.25
 30
0.0
 11
493.0
 21
444.7601009999999
 31
0.0
1001
ACAD
1010
0.0
1020
0.0
1030
0.0
1001
GENIUS_GENOBJ-N-HTC_13
1002
{
1000
OWNER
1000
GEN
1002
}
1001
GENIUS_GENODEF_13
1002
{
1000
HIER
1070
     0
1002
}
1002
{
1000
MANEDIT
1070
     0
1002
}
1002
{
1000
NOSEL
1070
     0
1002
}
1002
{
1000
BEHIND
1070
     0
1002
}
1002
{
1000
OTHER
1070
     0
1002
}
1002
{
1000
REACTOR
1002
}
1001
GENIUS_GENHATCH_13
1002
{
1000
DATA
1040
0.0
1042
0.5
1000
ANSI31
1070
     0
1011
473.6514179999999
1021
443.5842889999999
1031
0.0
1002
}
1002
{
1000
UCS
1010
0.0
1020
0.0
1030
0.0
1010
1.0
1020
0.0
1030
0.0
1010
0.0
1020
1.0
1030
0.0
1002
}
  0
LINE
  5
629
330
1E
100
AcDbEntity
  8
OS
100
AcDbLine
 10
104.4999999999999
 20
417.827777
 30
0.0
 11
126.922223
 21
440.2499999999999
 31
0.0
1001
ACAD
1010
0.0
1020
0.0
1030
0.0
1001
GENIUS_GENODEF_13
1002
{
1000
HIER
1070
     0
1002
}
1002
{
1000
MANEDIT
1070
     0
1002
}
1002
{
1000
NOSEL
1070
     0
1002
}
1002
{
1000
BEHIND
1070
     0
1002
}
1002
{
1000
OTHER
1070
     0
1002
}
1002
{
1000
REACTOR
1002
}
1001
GENIUS_GENOBJ-N-HTC_13
1002
{
1000
OWNER
1000
GEN
1002
}
1001
GENIUS_GENHATCH_13
1002
{
1000
DATA
1040
45.0
1042
2.5
1000
_U
1070
     0
1011
120.206345
1021
428.2905179999999
1031
0.0
1002
}
1002
{
1000
UCS
1010
0.0
1020
0.0
1030
0.0
1010
1.0
1020
0.0
1030
0.0
1010
0.0
1020
1.0
1030
0.0
1002
}
  0
LINE
  5
62A
330
1E
100
AcDbEntity
  8
OS
100
AcDbLine
 10
104.4999999999999
 20
427.727272
 30
0.0
 11
117.0227279999999
 21
440.2499999999999
 31
0.0
1001
ACAD
1010
0.0
1020
0.0
1030
0.0
1001
GENIUS_GENODEF_13
1002
{
1000
HIER
1070
     0
1002
}
1002
{
1000
MANEDIT
1070
     0
1002
}
1002
{
1000
NOSEL
1070
     0
1002
}
1002
{
1000
BEHIND
1070
     0
1002
}
1002
{
1000
OTHER
1070
     0
1002
}
1002
{
1000
REACTOR
1002
}
1001
GENIUS_GENOBJ-N-HTC_13
1002
{
1000
OWNER
1000
GEN
1002
}
1001
GENIUS_GENHATCH_13
1002
{
1000
DATA
1040
45.0
1042
2.5
1000
_U
1070
     0
1011
110.30685
1021
428.2905179999999
1031
0.0
1002
}
1002
{
1000
UCS
1010
0.0
1020
0.0
1030
0.0
1010
1.0
1020
0.0
1030
0.0
1010
0.0
1020
1.0
1030
0.0
1002
}
  0
LINE
  5
62B
330
1E
100
AcDbEntity
  8
OS
100
AcDbLine
 10
104.4999999999999
 20
437.6267669999999
 30
0.0
 11
107.123233
 21
440.2499999999999
 31
0.0
1001
ACAD
1010
0.0
1020
0.0
1030
0.0
1001
GENIUS_GENODEF_13
1002
{
1000
HIER
1070
     0
1002
}
1002
{
1000
MANEDIT
1070
     0
1002
}
1002
{
1000
NOSEL
1070
     0
1002
}
1002
{
1000
BEHIND
1070
     0
1002
}
1002
{
1000
OTHER
1070
     0
1002
}
1002
{
1000
REACTOR
1002
}
1001
GENIUS_GENOBJ-N-HTC_13
1002
{
1000
OWNER
1000
GEN
1002
}
1001
GENIUS_GENHATCH_13
1002
{
1000
DATA
1040
45.0
1042
2.5
1000
_U
1070
     0
1011
100.407355
1021
428.2905179999999
1031
0.0
1002
}
1002
{
1000
UCS
1010
0.0
1020
0.0
1030
0.0
1010
1.0
1020
0.0
1030
0.0
1010
0.0
1020
1.0
1030
0.0
1002
}
  0
LINE
  5
62C
330
1E
100
AcDbEntity
  8
OS
100
AcDbLine
 10
187.5
 20
489.25
 30
0.0
 11
177.5
 21
489.25
 31
0.0
  0
LINE
  5
62D
330
1E
100
AcDbEntity
  8
OS
100
AcDbLine
 10
189.4999999999999
 20
491.25
 30
0.0
 11
177.5
 21
491.25
 31
0.0
  0
LINE
  5
62E
330
1E
100
AcDbEntity
  8
OS
100
AcDbLine
 10
189.4999999999999
 20
445.2499999999999
 30
0.0
 11
124.5
 21
440.2499999999999
 31
0.0
  0
LINE
  5
62F
330
1E
100
AcDbEntity
  8
OS
100
AcDbLine
 10
187.5
 20
447.25
 30
0.0
 11
126.5
 21
447.25
 31
0.0
  0
LINE
  5
630
330
1E
100
AcDbEntity
  8
OS
100
AcDbLine
 10
189.4999999999999
 20
445.2499999999999
 30
0.0
 11
124.5
 21
445.2499999999999
 31
0.0
  0
LINE
  5
631
330
1E
100
AcDbEntity
  8
OS
100
AcDbLine
 10
126.5
 20
489.25
 30
0.0
 11
126.5
 21
447.25
 31
0.0
  0
LINE
  5
632
330
1E
100
AcDbEntity
  8
OS
100
AcDbLine
 10
124.5
 20
491.25
 30
0.0
 11
124.5
 21
445.2499999999999
 31
0.0
  0
LINE
  5
633
330
1E
100
AcDbEntity
  8
OS
100
AcDbLine
 10
122.5
 20
491.25
 30
0.0
 11
122.5
 21
440.2499999999999
 31
0.0
  0
LINE
  5
634
330
1E
100
AcDbEntity
  8
OS
100
AcDbLine
 10
114.0
 20
491.25
 30
0.0
 11
114.0
 21
440.2499999999999
 31
0.0
  0
LINE
  5
635
330
1E
100
AcDbEntity
  8
OS
100
AcDbLine
 10
112.0
 20
491.25
 30
0.0
 11
112.0
 21
440.2499999999999
 31
0.0
  0
LINE
  5
636
330
1E
100
AcDbEntity
  8
OS
100
AcDbLine
 10
124.5
 20
491.25
 30
0.0
 11
124.5
 21
440.2499999999999
 31
0.0
  0
LINE
  5
637
330
1E
100
AcDbEntity
  8
OS
100
AcDbLine
 10
136.4999999999999
 20
491.25
 30
0.0
 11
124.5
 21
491.25
 31
0.0
  0
LINE
  5
638
330
1E
100
AcDbEntity
  8
OS
100
AcDbLine
 10
136.4999999999999
 20
489.25
 30
0.0
 11
126.5
 21
489.25
 31
0.0
  0
LINE
  5
639
330
1E
100
AcDbEntity
  8
OS
100
AcDbLine
 10
136.4999999999999
 20
491.25
 30
0.0
 11
136.4999999999999
 21
489.25
 31
0.0
  0
LINE
  5
63A
330
1E
100
AcDbEntity
  8
OS
100
AcDbLine
 10
177.5
 20
491.25
 30
0.0
 11
177.5
 21
489.25
 31
0.0
  0
LINE
  5
63B
330
1E
100
AcDbEntity
  8
OS
100
AcDbLine
 10
187.5
 20
489.25
 30
0.0
 11
187.5
 21
447.25
 31
0.0
  0
LINE
  5
63C
330
1E
100
AcDbEntity
  8
OS
100
AcDbLine
 10
189.4999999999999
 20
491.25
 30
0.0
 11
189.4999999999999
 21
445.2499999999999
 31
0.0
  0
LINE
  5
63D
330
1E
100
AcDbEntity
  8
OS
100
AcDbLine
 10
200.0
 20
491.25
 30
0.0
 11
200.0
 21
440.2499999999999
 31
0.0
  0
LINE
  5
63E
330
1E
100
AcDbEntity
  8
OS
100
AcDbLine
 10
191.5
 20
491.25
 30
0.0
 11
191.5
 21
440.2499999999999
 31
0.0
  0
LINE
  5
63F
330
1E
100
AcDbEntity
  8
OS
100
AcDbLine
 10
202.0
 20
491.25
 30
0.0
 11
202.0
 21
440.2499999999999
 31
0.0
  0
LINE
  5
640
330
1E
100
AcDbEntity
  8
OS
100
AcDbLine
 10
189.4999999999999
 20
491.25
 30
0.0
 11
189.4999999999999
 21
440.2499999999999
 31
0.0
  0
LINE
  5
641
330
1E
100
AcDbEntity
  8
OS
100
AcDbLine
 10
112.0
 20
440.2499999999999
 30
0.0
 11
202.0
 21
440.2499999999999
 31
0.0
  0
LINE
  5
642
330
1E
100
AcDbEntity
  8
SU
100
AcDbLine
 10
189.4999999999999
 20
511.2499999999999
 30
0.0
 11
202.0
 21
511.2499999999999
 31
0.0
  0
LINE
  5
643
330
1E
100
AcDbEntity
  8
SU
100
AcDbLine
 10
236.016289
 20
511.2499999999999
 30
0.0
 11
202.0
 21
511.2499999999999
 31
0.0
  0
LINE
  5
644
330
1E
100
AcDbEntity
  8
SU
100
AcDbLine
 10
189.4999999999999
 20
492.25
 30
0.0
 11
189.4999999999999
 21
514.25
 31
0.0
  0
LINE
  5
645
330
1E
100
AcDbEntity
  8
SU
100
AcDbLine
 10
124.5
 20
511.2499999999999
 30
0.0
 11
189.4999999999999
 21
511.2499999999999
 31
0.0
  0
LINE
  5
646
330
1E
100
AcDbEntity
  8
SU
100
AcDbLine
 10
124.5
 20
492.25
 30
0.0
 11
124.5
 21
514.25
 31
0.0
  0
LINE
  5
647
330
1E
100
AcDbEntity
  8
SU
100
AcDbLine
 10
124.5
 20
511.2499999999999
 30
0.0
 11
112.0
 21
511.2499999999999
 31
0.0
  0
LINE
  5
648
330
1E
100
AcDbEntity
  8
SU
100
AcDbLine
 10
79.851224
 20
511.2499999999999
 30
0.0
 11
112.0
 21
511.2499999999999
 31
0.0
  0
LINE
  5
649
330
1E
100
AcDbEntity
  8
SU
100
AcDbLine
 10
213.5
 20
441.25
 30
0.0
 11
213.5
 21
529.25
 31
0.0
  0
LINE
  5
64A
330
1E
100
AcDbEntity
  8
SU
100
AcDbLine
 10
202.0
 20
526.25
 30
0.0
 11
213.5
 21
526.25
 31
0.0
  0
LINE
  5
64B
330
1E
100
AcDbEntity
  8
SU
100
AcDbLine
 10
213.5
 20
526.25
 30
0.0
 11
237.776667
 21
526.25
 31
0.0
  0
LINE
  5
64C
330
1E
100
AcDbEntity
  8
SU
100
AcDbLine
 10
202.0
 20
492.25
 30
0.0
 11
202.0
 21
529.25
 31
0.0
  0
LINE
  5
64D
330
1E
100
AcDbEntity
  8
SU
100
AcDbLine
 10
112.0
 20
526.25
 30
0.0
 11
202.0
 21
526.25
 31
0.0
  0
LINE
  5
64E
330
1E
100
AcDbEntity
  8
SU
100
AcDbLine
 10
112.0
 20
492.25
 30
0.0
 11
112.0
 21
529.25
 31
0.0
  0
LINE
  5
64F
330
1E
100
AcDbEntity
  8
SU
100
AcDbLine
 10
100.5
 20
441.25
 30
0.0
 11
100.5
 21
529.25
 31
0.0
  0
LINE
  5
650
330
1E
100
AcDbEntity
  8
SU
100
AcDbLine
 10
112.0
 20
526.25
 30
0.0
 11
100.5
 21
526.25
 31
0.0
  0
LINE
  5
651
330
1E
100
AcDbEntity
  8
SU
100
AcDbLine
 10
100.5
 20
526.25
 30
0.0
 11
76.223333
 21
526.25
 31
0.0
  0
TEXT
  5
652
330
1E
100
AcDbEntity
  8
SU
100
AcDbText
 10
75.86333299999999
 20
527.55
 30
0.0
 40
7.0
  1
11.5
 41
0.8299999999999998
100
AcDbText
  0
TEXT
  5
653
330
1E
100
AcDbEntity
  8
SU
100
AcDbText
 10
151.466666
 20
527.55
 30
0.0
 40
7.0
  1
90
 41
0.8299999999999998
100
AcDbText
  0
TEXT
  5
654
330
1E
100
AcDbEntity
  8
SU
100
AcDbText
 10
217.94
 20
527.55
 30
0.0
 40
7.0
  1
11.5
 41
0.8299999999999998
100
AcDbText
  0
TEXT
  5
655
330
1E
100
AcDbEntity
  8
SU
100
AcDbText
 10
79.491224
 20
512.5499999999999
 30
0.0
 40
7.0
  1
12.5
 41
0.8299999999999998
100
AcDbText
  0
TEXT
  5
656
330
1E
100
AcDbEntity
  8
SU
100
AcDbText
 10
151.328333
 20
512.5499999999999
 30
0.0
 40
7.0
  1
65
 41
0.8299999999999998
100
AcDbText
  0
TEXT
  5
657
330
1E
100
AcDbEntity
  8
SU
100
AcDbText
 10
216.179622
 20
512.5499999999999
 30
0.0
 40
7.0
  1
12.5
 41
0.8299999999999998
100
AcDbText
  0
ARC
  5
658
330
1E
100
AcDbEntity
  8
SU
100
AcDbCircle
 10
202.0
 20
511.2499999999999
 30
0.0
 40
0.6
100
AcDbArc
 50
180.0
 51
0.0
  0
ARC
  5
659
330
1E
100
AcDbEntity
  8
SU
100
AcDbCircle
 10
202.0
 20
511.2499999999999
 30
0.0
 40
0.6
100
AcDbArc
 50
0.0
 51
180.0
  0
ARC
  5
65A
330
1E
100
AcDbEntity
  8
SU
100
AcDbCircle
 10
189.4999999999999
 20
511.2499999999999
 30
0.0
 40
0.6
100
AcDbArc
 50
180.0
 51
0.0
  0
ARC
  5
65B
330
1E
100
AcDbEntity
  8
SU
100
AcDbCircle
 10
189.4999999999999
 20
511.2499999999999
 30
0.0
 40
0.6
100
AcDbArc
 50
0.0
 51
180.0
  0
ARC
  5
65C
330
1E
100
AcDbEntity
  8
SU
100
AcDbCircle
 10
124.5
 20
511.2499999999999
 30
0.0
 40
0.6
100
AcDbArc
 50
180.0
 51
0.0
  0
ARC
  5
65D
330
1E
100
AcDbEntity
  8
SU
100
AcDbCircle
 10
124.5
 20
511.2499999999999
 30
0.0
 40
0.6
100
AcDbArc
 50
0.0
 51
180.0
  0
ARC
  5
65E
330
1E
100
AcDbEntity
  8
SU
100
AcDbCircle
 10
112.0
 20
511.2499999999999
 30
0.0
 40
0.6
100
AcDbArc
 50
0.0
 51
180.0
  0
ARC
  5
65F
330
1E
100
AcDbEntity
  8
SU
100
AcDbCircle
 10
112.0
 20
511.2499999999999
 30
0.0
 40
0.6
100
AcDbArc
 50
180.0
 51
0.0
  0
ARC
  5
660
330
1E
100
AcDbEntity
  8
SU
100
AcDbCircle
 10
213.5
 20
526.25
 30
0.0
 40
0.6
100
AcDbArc
 50
180.0
 51
0.0
  0
ARC
  5
661
330
1E
100
AcDbEntity
  8
SU
100
AcDbCircle
 10
213.5
 20
526.25
 30
0.0
 40
0.6
100
AcDbArc
 50
0.0
 51
180.0
  0
ARC
  5
662
330
1E
100
AcDbEntity
  8
SU
100
AcDbCircle
 10
202.0
 20
526.25
 30
0.0
 40
0.6
100
AcDbArc
 50
180.0
 51
0.0
  0
ARC
  5
663
330
1E
100
AcDbEntity
  8
SU
100
AcDbCircle
 10
202.0
 20
526.25
 30
0.0
 40
0.6
100
AcDbArc
 50
0.0
 51
180.0
  0
ARC
  5
664
330
1E
100
AcDbEntity
  8
SU
100
AcDbCircle
 10
112.0
 20
526.25
 30
0.0
 40
0.6
100
AcDbArc
 50
180.0
 51
0.0
  0
ARC
  5
665
330
1E
100
AcDbEntity
  8
SU
100
AcDbCircle
 10
112.0
 20
526.25
 30
0.0
 40
0.6
100
AcDbArc
 50
0.0
 51
180.0
  0
ARC
  5
666
330
1E
100
AcDbEntity
  8
SU
100
AcDbCircle
 10
100.5
 20
526.25
 30
0.0
 40
0.6
100
AcDbArc
 50
0.0
 51
180.0
  0
ARC
  5
667
330
1E
100
AcDbEntity
  8
SU
100
AcDbCircle
 10
100.5
 20
526.25
 30
0.0
 40
0.6
100
AcDbArc
 50
180.0
 51
0.0
  0
LINE
  5
668
330
1E
100
AcDbEntity
  8
OS
100
AcDbLine
 10
457.5
 20
315.7525249999999
 30
0.0
 11
474.9974749999999
 21
333.25
 31
0.0
1001
ACAD
1010
0.0
1020
0.0
1030
0.0
  0
LINE
  5
669
330
1E
100
AcDbEntity
  8
OS
100
AcDbLine
 10
457.5
 20
325.65202
 30
0.0
 11
465.0979799999999
 21
333.25
 31
0.0
1001
ACAD
1010
0.0
1020
0.0
1030
0.0
  0
LINE
  5
66A
330
1E
100
AcDbEntity
  8
OS
100
AcDbLine
 10
707.5
 20
315.7525249999999
 30
0.0
 11
690.0025249999999
 21
333.25
 31
0.0
1001
ACAD
1010
0.0
1020
0.0
1030
0.0
  0
LINE
  5
66B
330
1E
100
AcDbEntity
  8
OS
100
AcDbLine
 10
707.5
 20
325.65202
 30
0.0
 11
699.90202
 21
333.25
 31
0.0
1001
ACAD
1010
0.0
1020
0.0
1030
0.0
  0
LINE
  5
66C
330
1E
100
AcDbEntity
  8
OS
100
AcDbLine
 10
452.5
 20
309.25
 30
0.0
 11
452.5
 21
244.2499999999999
 31
0.0
  0
LINE
  5
66D
330
1E
100
AcDbEntity
  8
OS
100
AcDbLine
 10
450.4999999999999
 20
307.25
 30
0.0
 11
450.4999999999999
 21
246.2499999999999
 31
0.0
  0
LINE
  5
66E
330
1E
100
AcDbEntity
  8
OS
100
AcDbLine
 10
452.5
 20
244.2499999999999
 30
0.0
 11
457.5
 21
309.25
 31
0.0
  0
LINE
  5
66F
330
1E
100
AcDbEntity
  8
OS
100
AcDbLine
 10
406.5
 20
244.2499999999999
 30
0.0
 11
452.5
 21
244.2499999999999
 31
0.0
  0
LINE
  5
670
330
1E
100
AcDbEntity
  8
OS
100
AcDbLine
 10
408.4999999999999
 20
246.2499999999999
 30
0.0
 11
450.4999999999999
 21
246.2499999999999
 31
0.0
  0
LINE
  5
671
330
1E
100
AcDbEntity
  8
OS
100
AcDbLine
 10
406.5
 20
244.2499999999999
 30
0.0
 11
457.5
 21
244.2499999999999
 31
0.0
  0
LINE
  5
672
330
1E
100
AcDbEntity
  8
OS
100
AcDbLine
 10
406.5
 20
231.7499999999999
 30
0.0
 11
457.5
 21
231.7499999999999
 31
0.0
  0
LINE
  5
673
330
1E
100
AcDbEntity
  8
OS
100
AcDbLine
 10
406.5
 20
233.7499999999999
 30
0.0
 11
457.5
 21
233.7499999999999
 31
0.0
  0
LINE
  5
674
330
1E
100
AcDbEntity
  8
OS
100
AcDbLine
 10
406.5
 20
242.2499999999999
 30
0.0
 11
457.5
 21
242.2499999999999
 31
0.0
  0
LINE
  5
675
330
1E
100
AcDbEntity
  8
OS
100
AcDbLine
 10
408.4999999999999
 20
256.25
 30
0.0
 11
408.4999999999999
 21
246.2499999999999
 31
0.0
  0
LINE
  5
676
330
1E
100
AcDbEntity
  8
OS
100
AcDbLine
 10
406.5
 20
256.25
 30
0.0
 11
406.5
 21
244.2499999999999
 31
0.0
  0
LINE
  5
677
330
1E
100
AcDbEntity
  8
OS
100
AcDbLine
 10
406.5
 20
256.25
 30
0.0
 11
408.4999999999999
 21
256.25
 31
0.0
  0
LINE
  5
678
330
1E
100
AcDbEntity
  8
OS
100
AcDbLine
 10
406.5
 20
309.25
 30
0.0
 11
452.5
 21
309.25
 31
0.0
  0
LINE
  5
679
330
1E
100
AcDbEntity
  8
OS
100
AcDbLine
 10
408.4999999999999
 20
307.25
 30
0.0
 11
450.4999999999999
 21
307.25
 31
0.0
  0
LINE
  5
67A
330
1E
100
AcDbEntity
  8
OS
100
AcDbLine
 10
406.5
 20
309.25
 30
0.0
 11
457.5
 21
309.25
 31
0.0
  0
LINE
  5
67B
330
1E
100
AcDbEntity
  8
OS
100
AcDbLine
 10
406.5
 20
321.75
 30
0.0
 11
457.5
 21
321.75
 31
0.0
  0
LINE
  5
67C
330
1E
100
AcDbEntity
  8
OS
100
AcDbLine
 10
406.5
 20
311.25
 30
0.0
 11
457.5
 21
311.25
 31
0.0
  0
LINE
  5
67D
330
1E
100
AcDbEntity
  8
OS
100
AcDbLine
 10
406.5
 20
319.75
 30
0.0
 11
457.5
 21
319.75
 31
0.0
  0
LINE
  5
67E
330
1E
100
AcDbEntity
  8
OS
100
AcDbLine
 10
406.5
 20
297.25
 30
0.0
 11
408.4999999999999
 21
297.25
 31
0.0
  0
LINE
  5
67F
330
1E
100
AcDbEntity
  8
OS
100
AcDbLine
 10
408.4999999999999
 20
307.25
 30
0.0
 11
408.4999999999999
 21
297.25
 31
0.0
  0
LINE
  5
680
330
1E
100
AcDbEntity
  8
OS
100
AcDbLine
 10
406.5
 20
309.25
 30
0.0
 11
406.5
 21
297.25
 31
0.0
  0
LINE
  5
681
330
1E
100
AcDbEntity
  8
OS
100
AcDbLine
 10
457.5
 20
321.75
 30
0.0
 11
457.5
 21
231.7499999999999
 31
0.0
  0
LINE
  5
682
330
1E
100
AcDbEntity
  8
SU
100
AcDbLine
 10
386.5
 20
309.25
 30
0.0
 11
386.5
 21
321.75
 31
0.0
  0
LINE
  5
683
330
1E
100
AcDbEntity
  8
SU
100
AcDbLine
 10
386.5
 20
355.871189
 30
0.0
 11
386.5
 21
321.75
 31
0.0
  0
LINE
  5
684
330
1E
100
AcDbEntity
  8
SU
100
AcDbLine
 10
405.4999999999999
 20
309.25
 30
0.0
 11
383.4999999999999
 21
309.25
 31
0.0
  0
LINE
  5
685
330
1E
100
AcDbEntity
  8
SU
100
AcDbLine
 10
386.5
 20
244.2499999999999
 30
0.0
 11
386.5
 21
309.25
 31
0.0
  0
LINE
  5
686
330
1E
100
AcDbEntity
  8
SU
100
AcDbLine
 10
405.4999999999999
 20
244.2499999999999
 30
0.0
 11
383.4999999999999
 21
244.2499999999999
 31
0.0
  0
LINE
  5
687
330
1E
100
AcDbEntity
  8
SU
100
AcDbLine
 10
386.5
 20
244.2499999999999
 30
0.0
 11
386.5
 21
231.7499999999999
 31
0.0
  0
LINE
  5
688
330
1E
100
AcDbEntity
  8
SU
100
AcDbLine
 10
386.5
 20
199.2595469999999
 30
0.0
 11
386.5
 21
231.7499999999999
 31
0.0
  0
LINE
  5
689
330
1E
100
AcDbEntity
  8
SU
100
AcDbLine
 10
456.5
 20
333.25
 30
0.0
 11
368.5
 21
333.25
 31
0.0
  0
LINE
  5
68A
330
1E
100
AcDbEntity
  8
SU
100
AcDbLine
 10
371.4999999999999
 20
321.75
 30
0.0
 11
371.4999999999999
 21
333.25
 31
0.0
  0
LINE
  5
68B
330
1E
100
AcDbEntity
  8
SU
100
AcDbLine
 10
371.4999999999999
 20
333.25
 30
0.0
 11
371.4999999999999
 21
357.5266669999999
 31
0.0
  0
LINE
  5
68C
330
1E
100
AcDbEntity
  8
SU
100
AcDbLine
 10
405.4999999999999
 20
321.75
 30
0.0
 11
368.5
 21
321.75
 31
0.0
  0
LINE
  5
68D
330
1E
100
AcDbEntity
  8
SU
100
AcDbLine
 10
371.4999999999999
 20
231.7499999999999
 30
0.0
 11
371.4999999999999
 21
321.75
 31
0.0
  0
LINE
  5
68E
330
1E
100
AcDbEntity
  8
SU
100
AcDbLine
 10
405.4999999999999
 20
231.7499999999999
 30
0.0
 11
368.5
 21
231.7499999999999
 31
0.0
  0
LINE
  5
68F
330
1E
100
AcDbEntity
  8
SU
100
AcDbLine
 10
456.5
 20
220.25
 30
0.0
 11
368.5
 21
220.25
 31
0.0
  0
LINE
  5
690
330
1E
100
AcDbEntity
  8
SU
100
AcDbLine
 10
371.4999999999999
 20
231.7499999999999
 30
0.0
 11
371.4999999999999
 21
220.25
 31
0.0
  0
LINE
  5
691
330
1E
100
AcDbEntity
  8
SU
100
AcDbLine
 10
371.4999999999999
 20
220.25
 30
0.0
 11
371.4999999999999
 21
195.9733329999999
 31
0.0
  0
TEXT
  5
692
330
1E
100
AcDbEntity
  8
SU
100
AcDbText
 10
370.1999999999999
 20
195.613333
 30
0.0
 40
7.0
  1
11.5
 50
90.0
 41
0.8299999999999998
100
AcDbText
  0
TEXT
  5
693
330
1E
100
AcDbEntity
  8
SU
100
AcDbText
 10
370.1999999999999
 20
271.2166669999999
 30
0.0
 40
7.0
  1
90
 50
90.0
 41
0.8299999999999998
100
AcDbText
  0
TEXT
  5
694
330
1E
100
AcDbEntity
  8
SU
100
AcDbText
 10
370.1999999999999
 20
337.69
 30
0.0
 40
7.0
  1
11.5
 50
90.0
 41
0.8299999999999998
100
AcDbText
  0
TEXT
  5
695
330
1E
100
AcDbEntity
  8
SU
100
AcDbText
 10
385.1999999999999
 20
198.8995469999999
 30
0.0
 40
7.0
  1
12.5
 50
90.0
 41
0.8299999999999998
100
AcDbText
  0
TEXT
  5
696
330
1E
100
AcDbEntity
  8
SU
100
AcDbText
 10
385.1999999999999
 20
271.0783329999999
 30
0.0
 40
7.0
  1
65
 50
90.0
 41
0.8299999999999998
100
AcDbText
  0
TEXT
  5
697
330
1E
100
AcDbEntity
  8
SU
100
AcDbText
 10
385.1999999999999
 20
336.034523
 30
0.0
 40
7.0
  1
12.5
 50
90.0
 41
0.8299999999999998
100
AcDbText
  0
ARC
  5
698
330
1E
100
AcDbEntity
  8
SU
100
AcDbCircle
 10
386.5
 20
321.75
 30
0.0
 40
0.6
100
AcDbArc
 50
270.0
 51
90.0
  0
ARC
  5
699
330
1E
100
AcDbEntity
  8
SU
100
AcDbCircle
 10
386.5
 20
321.75
 30
0.0
 40
0.6
100
AcDbArc
 50
90.0
 51
270.0
  0
ARC
  5
69A
330
1E
100
AcDbEntity
  8
SU
100
AcDbCircle
 10
386.5
 20
309.25
 30
0.0
 40
0.6
100
AcDbArc
 50
270.0
 51
90.0
  0
ARC
  5
69B
330
1E
100
AcDbEntity
  8
SU
100
AcDbCircle
 10
386.5
 20
309.25
 30
0.0
 40
0.6
100
AcDbArc
 50
90.0
 51
270.0
  0
ARC
  5
69C
330
1E
100
AcDbEntity
  8
SU
100
AcDbCircle
 10
386.5
 20
244.2499999999999
 30
0.0
 40
0.6
100
AcDbArc
 50
270.0
 51
90.0
  0
ARC
  5
69D
330
1E
100
AcDbEntity
  8
SU
100
AcDbCircle
 10
386.5
 20
244.2499999999999
 30
0.0
 40
0.6
100
AcDbArc
 50
90.0
 51
270.0
  0
ARC
  5
69E
330
1E
100
AcDbEntity
  8
SU
100
AcDbCircle
 10
386.5
 20
231.7499999999999
 30
0.0
 40
0.6
100
AcDbArc
 50
90.0
 51
270.0
  0
ARC
  5
69F
330
1E
100
AcDbEntity
  8
SU
100
AcDbCircle
 10
386.5
 20
231.7499999999999
 30
0.0
 40
0.6
100
AcDbArc
 50
270.0
 51
90.0
  0
ARC
  5
6A0
330
1E
100
AcDbEntity
  8
SU
100
AcDbCircle
 10
371.4999999999999
 20
333.25
 30
0.0
 40
0.6
100
AcDbArc
 50
270.0
 51
90.0
  0
ARC
  5
6A1
330
1E
100
AcDbEntity
  8
SU
100
AcDbCircle
 10
371.4999999999999
 20
333.25
 30
0.0
 40
0.6
100
AcDbArc
 50
90.0
 51
270.0
  0
ARC
  5
6A2
330
1E
100
AcDbEntity
  8
SU
100
AcDbCircle
 10
371.4999999999999
 20
321.75
 30
0.0
 40
0.6
100
AcDbArc
 50
270.0
 51
90.0
  0
ARC
  5
6A3
330
1E
100
AcDbEntity
  8
SU
100
AcDbCircle
 10
371.4999999999999
 20
321.75
 30
0.0
 40
0.6
100
AcDbArc
 50
90.0
 51
270.0
  0
ARC
  5
6A4
330
1E
100
AcDbEntity
  8
SU
100
AcDbCircle
 10
371.4999999999999
 20
231.7499999999999
 30
0.0
 40
0.6
100
AcDbArc
 50
270.0
 51
90.0
  0
ARC
  5
6A5
330
1E
100
AcDbEntity
  8
SU
100
AcDbCircle
 10
371.4999999999999
 20
231.7499999999999
 30
0.0
 40
0.6
100
AcDbArc
 50
90.0
 51
270.0
  0
ARC
  5
6A6
330
1E
100
AcDbEntity
  8
SU
100
AcDbCircle
 10
371.4999999999999
 20
220.25
 30
0.0
 40
0.6
100
AcDbArc
 50
90.0
 51
270.0
  0
ARC
  5
6A7
330
1E
100
AcDbEntity
  8
SU
100
AcDbCircle
 10
371.4999999999999
 20
220.25
 30
0.0
 40
0.6
100
AcDbArc
 50
270.0
 51
90.0
  0
LINE
  5
6A8
330
1E
100
AcDbEntity
  8
OS
100
AcDbLine
 10
712.5
 20
309.25
 30
0.0
 11
712.5
 21
244.2499999999999
 31
0.0
  0
LINE
  5
6A9
330
1E
100
AcDbEntity
  8
OS
100
AcDbLine
 10
714.5
 20
307.25
 30
0.0
 11
714.5
 21
246.2499999999999
 31
0.0
  0
LINE
  5
6AA
330
1E
100
AcDbEntity
  8
OS
100
AcDbLine
 10
712.5
 20
244.2499999999999
 30
0.0
 11
707.5
 21
309.25
 31
0.0
  0
LINE
  5
6AB
330
1E
100
AcDbEntity
  8
OS
100
AcDbLine
 10
758.4999999999999
 20
244.2499999999999
 30
0.0
 11
712.5
 21
244.2499999999999
 31
0.0
  0
LINE
  5
6AC
330
1E
100
AcDbEntity
  8
OS
100
AcDbLine
 10
756.5
 20
246.2499999999999
 30
0.0
 11
714.5
 21
246.2499999999999
 31
0.0
  0
LINE
  5
6AD
330
1E
100
AcDbEntity
  8
OS
100
AcDbLine
 10
758.4999999999999
 20
244.2499999999999
 30
0.0
 11
707.5
 21
244.2499999999999
 31
0.0
  0
LINE
  5
6AE
330
1E
100
AcDbEntity
  8
OS
100
AcDbLine
 10
758.4999999999999
 20
231.7499999999999
 30
0.0
 11
707.5
 21
231.7499999999999
 31
0.0
  0
LINE
  5
6AF
330
1E
100
AcDbEntity
  8
OS
100
AcDbLine
 10
758.4999999999999
 20
233.7499999999999
 30
0.0
 11
707.5
 21
233.7499999999999
 31
0.0
  0
LINE
  5
6B0
330
1E
100
AcDbEntity
  8
OS
100
AcDbLine
 10
758.4999999999999
 20
242.2499999999999
 30
0.0
 11
707.5
 21
242.2499999999999
 31
0.0
  0
LINE
  5
6B1
330
1E
100
AcDbEntity
  8
OS
100
AcDbLine
 10
756.5
 20
256.25
 30
0.0
 11
756.5
 21
246.2499999999999
 31
0.0
  0
LINE
  5
6B2
330
1E
100
AcDbEntity
  8
OS
100
AcDbLine
 10
758.4999999999999
 20
256.25
 30
0.0
 11
758.4999999999999
 21
244.2499999999999
 31
0.0
  0
LINE
  5
6B3
330
1E
100
AcDbEntity
  8
OS
100
AcDbLine
 10
758.4999999999999
 20
256.25
 30
0.0
 11
756.5
 21
256.25
 31
0.0
  0
LINE
  5
6B4
330
1E
100
AcDbEntity
  8
OS
100
AcDbLine
 10
758.4999999999999
 20
309.25
 30
0.0
 11
712.5
 21
309.25
 31
0.0
  0
LINE
  5
6B5
330
1E
100
AcDbEntity
  8
OS
100
AcDbLine
 10
756.5
 20
307.25
 30
0.0
 11
714.5
 21
307.25
 31
0.0
  0
LINE
  5
6B6
330
1E
100
AcDbEntity
  8
OS
100
AcDbLine
 10
758.4999999999999
 20
309.25
 30
0.0
 11
707.5
 21
309.25
 31
0.0
  0
LINE
  5
6B7
330
1E
100
AcDbEntity
  8
OS
100
AcDbLine
 10
758.4999999999999
 20
321.75
 30
0.0
 11
707.5
 21
321.75
 31
0.0
  0
LINE
  5
6B8
330
1E
100
AcDbEntity
  8
OS
100
AcDbLine
 10
758.4999999999999
 20
311.25
 30
0.0
 11
707.5
 21
311.25
 31
0.0
  0
LINE
  5
6B9
330
1E
100
AcDbEntity
  8
OS
100
AcDbLine
 10
758.4999999999999
 20
319.75
 30
0.0
 11
707.5
 21
319.75
 31
0.0
  0
LINE
  5
6BA
330
1E
100
AcDbEntity
  8
OS
100
AcDbLine
 10
758.4999999999999
 20
297.25
 30
0.0
 11
756.5
 21
297.25
 31
0.0
  0
LINE
  5
6BB
330
1E
100
AcDbEntity
  8
OS
100
AcDbLine
 10
756.5
 20
307.25
 30
0.0
 11
756.5
 21
297.25
 31
0.0
  0
LINE
  5
6BC
330
1E
100
AcDbEntity
  8
OS
100
AcDbLine
 10
758.4999999999999
 20
309.25
 30
0.0
 11
758.4999999999999
 21
297.25
 31
0.0
  0
LINE
  5
6BD
330
1E
100
AcDbEntity
  8
OS
100
AcDbLine
 10
707.5
 20
321.75
 30
0.0
 11
707.5
 21
231.7499999999999
 31
0.0
  0
LINE
  5
6BE
330
1E
100
AcDbEntity
  8
KI1
100
AcDbLine
 10
490.5
 20
449.2499999999999
 30
0.0
 11
493.0
 21
446.75
 31
0.0
1001
GENIUS_GENFIL_13
1070
     0
1040
2.5
1040
2.5
1040
20.0
1040
0.0
1002
{
1002
}
1001
GENIUS_GENODEF_13
1002
{
1000
HIER
1070
     0
1002
}
1002
{
1000
MANEDIT
1070
     0
1002
}
1002
{
1000
NOSEL
1070
     0
1002
}
1002
{
1000
BEHIND
1070
     0
1002
}
1002
{
1000
OTHER
1070
     0
1002
}
1002
{
1000
REACTOR
1002
}
1001
GENIUS_GENOBJ-N-CHA_13
1002
{
1000
OWNER
1000
GEN
1002
}
  0
ENDSEC
  0
SECTION
  2
OBJECTS
  0
DICTIONARY
  5
C
330
0
100
AcDbDictionary
  3
ACAD_GROUP
350
D
  3
ACAD_LAYOUT
350
19
  3
ACAD_MLINESTYLE
350
16
  3
ACAD_PLOTSETTINGS
350
18
1001
ACAD
1000
TREAT_AS_HARD
1070
     0
  0
DICTIONARY
  5
6C5
330
1E
100
AcDbDictionary
  3
ACAD_LAYOUTSELFREF
350
6C6
  0
DICTIONARY
  5
6C3
330
1A
100
AcDbDictionary
  3
ACAD_LAYOUTSELFREF
350
6C4
  0
DICTIONARY
  5
D
102
{ACAD_REACTORS
330
C
102
}
330
C
100
AcDbDictionary
1001
ACAD
1000
TREAT_AS_HARD
1070
     0
  0
DICTIONARY
  5
19
102
{ACAD_REACTORS
330
C
102
}
330
C
100
AcDbDictionary
1001
ACAD
1000
TREAT_AS_HARD
1070
     0
  0
DICTIONARY
  5
16
102
{ACAD_REACTORS
330
C
102
}
330
C
100
AcDbDictionary
  3
STANDARD
350
17
1001
ACAD
1000
TREAT_AS_HARD
1070
     0
  0
DICTIONARY
  5
18
102
{ACAD_REACTORS
330
C
102
}
330
C
100
AcDbDictionary
1001
ACAD
1000
TREAT_AS_HARD
1070
     0
  0
XRECORD
  5
6C6
102
{ACAD_REACTORS
330
6C5
102
}
330
6C5
100
AcDbXrecord
340
1E
  0
XRECORD
  5
6C4
102
{ACAD_REACTORS
330
6C3
102
}
330
6C3
100
AcDbXrecord
340
1A
  0
MLINESTYLE
  5
17
102
{ACAD_REACTORS
330
16
102
}
330
16
100
AcDbMlineStyle
  2
STANDARD
 70
     0
  3

 62
   256
 51
90.0
 52
90.0
 71
     2
 49
0.5
 62
   256
  6
BYLAYER
 49
-0.5
 62
   256
  6
BYLAYER
  0
ENDSEC
  0
EOF
