  0
SECTION
  2
HEADER
  9
$ACADVER
  1
AC1012
  9
$DWGCODEPAGE
  3
dos932
  9
$INSBASE
 10
0.0
 20
0.0
 30
0.0
  9
$EXTMIN
 10
4228.699146888245
 20
-50.15783595326207
 30
0.0
  9
$EXTMAX
 10
5026.899146888245
 20
520.3421640467383
 30
0.0
  9
$LIMMIN
 10
4209.399146888245
 20
-66.45783595326202
  9
$LIMMAX
 10
5050.399146888246
 20
527.542164046738
  9
$ORTHOMODE
 70
     0
  9
$REGENMODE
 70
     1
  9
$FILLMODE
 70
     1
  9
$QTEXTMODE
 70
     0
  9
$MIRRTEXT
 70
     1
  9
$DRAGMODE
 70
     2
  9
$LTSCALE
 40
2.0
  9
$OSMODE
 70
  3071
  9
$ATTMODE
 70
     1
  9
$TEXTSIZE
 40
2.5
  9
$TRACEWID
 40
1.0
  9
$TEXTSTYLE
  7
SIMPLEXT
  9
$CLAYER
  8
AM_0
  9
$CELTYPE
  6
BYLAYER
  9
$CECOLOR
 62
   256
  9
$CELTSCALE
 40
1.0
  9
$DELOBJ
 70
     1
  9
$DISPSILH
 70
     0
  9
$DIMSCALE
 40
2.0
  9
$DIMASZ
 40
1.0
  9
$DIMEXO
 40
1.0
  9
$DIMDLI
 40
7.0
  9
$DIMRND
 40
0.0
  9
$DIMDLE
 40
0.0
  9
$DIMEXE
 40
1.0
  9
$DIMTP
 40
0.1
  9
$DIMTM
 40
0.1
  9
$DIMTXT
 40
3.0
  9
$DIMCEN
 40
0.0
  9
$DIMTSZ
 40
0.0
  9
$DIMTOL
 70
     0
  9
$DIMLIM
 70
     0
  9
$DIMTIH
 70
     0
  9
$DIMTOH
 70
     0
  9
$DIMSE1
 70
     0
  9
$DIMSE2
 70
     0
  9
$DIMTAD
 70
     1
  9
$DIMZIN
 70
     8
  9
$DIMBLK
  1

  9
$DIMASO
 70
     1
  9
$DIMSHO
 70
     1
  9
$DIMPOST
  1

  9
$DIMAPOST
  1
"
  9
$DIMALT
 70
     0
  9
$DIMALTD
 70
     2
  9
$DIMALTF
 40
0.0393701
  9
$DIMLFAC
 40
1.0
  9
$DIMTOFL
 70
     1
  9
$DIMTVP
 40
0.0
  9
$DIMTIX
 70
     1
  9
$DIMSOXD
 70
     0
  9
$DIMSAH
 70
     0
  9
$DIMBLK1
  1

  9
$DIMBLK2
  1

  9
$DIMSTYLE
  2
DTOS-2
  9
$DIMCLRD
 70
   256
  9
$DIMCLRE
 70
   256
  9
$DIMCLRT
 70
   256
  9
$DIMTFAC
 40
0.71
  9
$DIMGAP
 40
1.0
  9
$DIMJUST
 70
     0
  9
$DIMSD1
 70
     0
  9
$DIMSD2
 70
     0
  9
$DIMTOLJ
 70
     1
  9
$DIMTZIN
 70
     8
  9
$DIMALTZ
 70
     8
  9
$DIMALTTZ
 70
     8
  9
$DIMFIT
 70
     5
  9
$DIMUPT
 70
     0
  9
$DIMUNIT
 70
     2
  9
$DIMDEC
 70
     4
  9
$DIMTDEC
 70
     4
  9
$DIMALTU
 70
     2
  9
$DIMALTTD
 70
     2
  9
$DIMTXSTY
  7
STANDARD
  9
$DIMAUNIT
 70
     0
  9
$LUNITS
 70
     2
  9
$LUPREC
 70
     4
  9
$SKETCHINC
 40
1.0
  9
$FILLETRAD
 40
0.0
  9
$AUNITS
 70
     0
  9
$AUPREC
 70
     0
  9
$MENU
  1
.
  9
$ELEVATION
 40
0.0
  9
$PELEVATION
 40
0.0
  9
$THICKNESS
 40
0.0
  9
$LIMCHECK
 70
     0
  9
$BLIPMODE
 70
     0
  9
$CHAMFERA
 40
20.0
  9
$CHAMFERB
 40
20.0
  9
$CHAMFERC
 40
0.0
  9
$CHAMFERD
 40
0.0
  9
$SKPOLY
 70
     0
  9
$TDCREATE
 40
2454489.086194294
  9
$TDUPDATE
 40
2460361.735774351
  9
$TDINDWG
 40
0.8575620255
  9
$TDUSRTIMER
 40
0.8571751968
  9
$USRTIMER
 70
     1
  9
$ANGBASE
 50
0.0
  9
$ANGDIR
 70
     0
  9
$PDMODE
 70
     0
  9
$PDSIZE
 40
0.0
  9
$PLINEWID
 40
0.0
  9
$COORDS
 70
     1
  9
$SPLFRAME
 70
     0
  9
$SPLINETYPE
 70
     6
  9
$SPLINESEGS
 70
     8
  9
$ATTDIA
 70
     1
  9
$ATTREQ
 70
     1
  9
$HANDLING
 70
     1
  9
$HANDSEED
  5
1CC73
  9
$SURFTAB1
 70
     6
  9
$SURFTAB2
 70
     6
  9
$SURFTYPE
 70
     6
  9
$SURFU
 70
     6
  9
$SURFV
 70
     6
  9
$UCSNAME
  2

  9
$UCSORG
 10
0.0
 20
0.0
 30
0.0
  9
$UCSXDIR
 10
1.0
 20
0.0
 30
0.0
  9
$UCSYDIR
 10
0.0
 20
1.0
 30
0.0
  9
$PUCSNAME
  2

  9
$PUCSORG
 10
0.0
 20
0.0
 30
0.0
  9
$PUCSXDIR
 10
1.0
 20
0.0
 30
0.0
  9
$PUCSYDIR
 10
0.0
 20
1.0
 30
0.0
  9
$USERI1
 70
     0
  9
$USERI2
 70
     0
  9
$USERI3
 70
     0
  9
$USERI4
 70
     0
  9
$USERI5
 70
     0
  9
$USERR1
 40
0.0
  9
$USERR2
 40
0.0
  9
$USERR3
 40
0.0
  9
$USERR4
 40
0.0
  9
$USERR5
 40
0.0
  9
$WORLDVIEW
 70
     0
  9
$SHADEDGE
 70
     3
  9
$SHADEDIF
 70
    70
  9
$TILEMODE
 70
     1
  9
$MAXACTVP
 70
    48
  9
$PINSBASE
 10
0.0
 20
0.0
 30
0.0
  9
$PLIMCHECK
 70
     0
  9
$PEXTMIN
 10
-81.24937706734659
 20
-12.61109972763063
 30
0.0
  9
$PEXTMAX
 10
347.9493587567997
 20
215.8110938148499
 30
0.0
  9
$PLIMMIN
 10
0.0
 20
0.0
  9
$PLIMMAX
 10
420.0
 20
297.0
  9
$UNITMODE
 70
     0
  9
$VISRETAIN
 70
     1
  9
$PLINEGEN
 70
     0
  9
$PSLTSCALE
 70
     1
  9
$TREEDEPTH
 70
  3020
  9
$PICKSTYLE
 70
     1
  9
$CMLSTYLE
  2
STANDARD
  9
$CMLJUST
 70
     0
  9
$CMLSCALE
 40
1.0
  9
$SAVEIMAGES
 70
     1
  0
ENDSEC
  0
SECTION
  2
CLASSES
  0
CLASS
  1
ACDBDICTIONARYWDFLT
  2
AcDbDictionaryWithDefault
  3
AutoCAD 2000
 90
    32768
280
     0
281
     0
  0
CLASS
  1
MATERIAL
  2
AcDbMaterial
  3
ObjectDBX Classes
 90
    33921
280
     0
281
     0
  0
CLASS
  1
VISUALSTYLE
  2
AcDbVisualStyle
  3
ObjectDBX Classes
 90
    36863
280
     0
281
     0
  0
CLASS
  1
TABLESTYLE
  2
AcDbTableStyle
  3
ObjectDBX Classes
 90
    36863
280
     0
281
     0
  0
CLASS
  1
ACME_DOCUMENT
  2
AcMeDbDoc
  3
AcMeServices
 90
    32768
280
     0
281
     0
  0
CLASS
  1
AMGSETTINGSOBJ
  2
AmgSettingsObj
  3
"AcadM|Product Description: AutoCAD Mechanical|Company: Autodesk"
 90
    32768
280
     0
281
     0
  0
CLASS
  1
ACMESCOPE
  2
AcMeScope
  3
AcMeServices
 90
    32768
280
     0
281
     0
  0
CLASS
  1
ACMECOMMANDHISTORY
  2
AcMeCommandHistory
  3
AcMeServices
 90
    32768
280
     0
281
     0
  0
CLASS
  1
ACIMSYSVARMAN
  2
AcImSysVarManager
  3
AcMeServices
 90
    32768
280
     0
281
     0
  0
CLASS
  1
ACIMINTSYSVAR
  2
AcImIntSysVar
  3
AcMeServices
 90
    32768
280
     0
281
     0
  0
CLASS
  1
ACMEDRAWINGMAN
  2
AcMeDrawingMan
  3
AcMeServices
 90
    32768
280
     0
281
     0
  0
CLASS
  1
ACMEVIEW
  2
AcMeView
  3
AcMeServices
 90
    32768
280
     0
281
     0
  0
CLASS
  1
ACDBENTITYCACHE
  2
AcMeEntityCache
  3
AcMeServices
 90
    32768
280
     0
281
     0
  0
CLASS
  1
GSMANAGER
  2
AcMeGSManager
  3
AcMeServices
 90
    32768
280
     0
281
     0
  0
CLASS
  1
AMDTINTERNALREACTOR
  2
AmdtInternalReactor
  3
AcMeServices
 90
    32768
280
     0
281
     0
  0
CLASS
  1
ACMESTATEMGR
  2
AcMeStateMgr
  3
AcMeServices
 90
    32768
280
     0
281
     0
  0
CLASS
  1
ACGREFMASTER
  2
AcGrefMaster
  3
AcAttribServices
 90
    32768
280
     0
281
     0
  0
CLASS
  1
AM_DRAWING_MGR
  2
AcDmDwgMgr
  3
AcMechDwgViewMgmt
 90
    32768
280
     0
281
     0
  0
CLASS
  1
AM_DWG_DOCUMENT
  2
AcDmDwgDocument
  3
AcMechDwgViewMgmt
 90
    32768
280
     0
281
     0
  0
CLASS
  1
AM_DWG_SHEET
  2
AcDmSheet
  3
AcMechDwgViewMgmt
 90
    32768
280
     0
281
     0
  0
CLASS
  1
AM_VIEWDIMPARMAP
  2
AcDmViewDimParMap
  3
AcMechDwgViewMgmt
 90
    32768
280
     0
281
     0
  0
CLASS
  1
ACIMREALSYSVAR
  2
AcImRealSysVar
  3
AcMeServices
 90
    32768
280
     0
281
     0
  0
CLASS
  1
AM_DWGMGR_NAME
  2
AcDmDwgMgrName
  3
AcMechDwgViewMgmt
 90
    32768
280
     0
281
     0
  0
CLASS
  1
ACME_DATABASE
  2
AcMeDbDatabase
  3
AcMeServices
 90
    32768
280
     0
281
     0
  0
CLASS
  1
ACRFINSADJUSTERMGR
  2
AcRfInsAdjusterMgr
  3
AcMeServices
 90
    32768
280
     0
281
     0
  0
CLASS
  1
ACGREFACADMASTER
  2
AcGrefacadMaster
  3
AcGrefServices
 90
    32768
280
     0
281
     0
  0
CLASS
  1
AMDTMENUSTATEMGR
  2
AmdtMenuStateMgr
  3
McadcomServices
 90
    32768
280
     0
281
     0
  0
CLASS
  1
AMDTMCOMMENUSTATE
  2
AmdtMcomMenuState
  3
McadcomServices
 90
    32768
280
     0
281
     0
  0
CLASS
  1
AMIMASTER
  2
AmiMaster
  3
AmiServices
 90
    32768
280
     0
281
     0
  0
CLASS
  1
MAPIAMMOUDLE
  2
MApiAmModule
  3
MApiAmServices
 90
    32768
280
     0
281
     0
  0
CLASS
  1
ACIMSTRSYSVAR
  2
AcImStrSysVar
  3
AcMeServices
 90
    32768
280
     0
281
     0
  0
CLASS
  1
AMDTADMENUSTATE
  2
AmdtAdMenuState
  3
DesignerServices
 90
    32768
280
     0
281
     0
  0
CLASS
  1
ADAPPL
  2
AcAdAppl
  3
DesignerServices
 90
    32768
280
     0
281
     0
  0
CLASS
  1
DEPMGR
  2
AcAdDepMgr
  3
DesignerServices
 90
    32768
280
     0
281
     0
  0
CLASS
  1
PARAMMGR
  2
AcAdParamMgr
  3
DesignerServices
 90
    32768
280
     0
281
     0
  0
CLASS
  1
PARAMSCOPE
  2
AcAdParamScope
  3
DesignerServices
 90
    32768
280
     0
281
     0
  0
CLASS
  1
NAMEDAPPL
  2
AcAdNamedAppl
  3
DesignerServices
 90
    32768
280
     0
281
     0
  0
CLASS
  1
AMDTDMMENUSTATE
  2
AmdtDmMenuState
  3
AcMechDwgViewMgmt
 90
    32768
280
     0
281
     0
  0
CLASS
  1
AMDTAMMENUSTATE
  2
AmdtAmMenuState
  3
DesignerAssemblies
 90
    32768
280
     0
281
     0
  0
CLASS
  1
ACAMPROJECT
  2
AcAmProject
  3
DesignerAssemblies
 90
    32768
280
     0
281
     0
  0
CLASS
  1
ACAMGRCOMPDEF
  2
AcAmGrCompDef
  3
DesignerAssemblies
 90
    32768
280
     0
281
     0
  0
CLASS
  1
ACCMCONTEXT
  2
AcCmContext
  3
DesignerAssemblies
 90
    32768
280
     0
281
     0
  0
CLASS
  1
ACAMCOMPDEF
  2
AcAmCompDef
  3
DesignerAssemblies
 90
    32768
280
     0
281
     0
  0
CLASS
  1
ACAMCOMPDEFMGR
  2
AcAmCompDefMgr
  3
DesignerAssemblies
 90
    32768
280
     0
281
     0
  0
CLASS
  1
AMCONTEXTMGR
  2
AcAmContextMgr
  3
DesignerAssemblies
 90
    32768
280
     0
281
     0
  0
CLASS
  1
ACAMCONTEXTMODELER
  2
AcAmContextModeler
  3
DesignerAssemblies
 90
    32768
280
     0
281
     0
  0
CLASS
  1
ACMDATADICTIONARY
  2
AcmDataDictionary
  3
"AcmSymBB|Product Description: AutoCAD Mechanical|Company: Autodesk"
 90
    32768
280
     0
281
     0
  0
CLASS
  1
CATALOGSTATE
  2
AcAmCatalogState
  3
DesignerAssemblies
 90
    32768
280
     0
281
     0
  0
CLASS
  1
ACAMGRCOMPDEFSET
  2
AcAmGrCompDefSet
  3
DesignerAssemblies
 90
    32768
280
     0
281
     0
  0
CLASS
  1
AMDTBROWSERDBTAB
  2
AmdtBrowserDbTab
  3
McadcomServices
 90
    32768
280
     0
281
     0
  0
CLASS
  1
CBROWSERAPPOBJECT
  2
CBrowserAppObject
  3
McadcomServices
 90
    32768
280
     0
281
     0
  0
CLASS
  1
DM_PLACEHOLDER
  2
AcDmSelsetPlaceholder
  3
AcMechDwgViewMgmt
 90
    32768
280
     0
281
     0
  0
CLASS
  1
ACMSTANDARDANSI
  2
AcmStandardANSI
  3
"Amdt_StdImp|Product Description: AutoCAD Mechanical|Company: Autodesk"
 90
    32768
280
     0
281
     0
  0
CLASS
  1
AMGOBJPROPCFG
  2
AmgObjPropCfg
  3
"AmgLay|Product Description: AutoCAD Mechanical|Company: Autodesk"
 90
    32769
280
     0
281
     0
  0
CLASS
  1
ACMSURFSTANDARDANSI
  2
AcmSurfTextStdANSI
  3
"Amdt_StdImp|Product Description: AutoCAD Mechanical|Company: Autodesk"
 90
    32768
280
     0
281
     0
  0
CLASS
  1
ACMFCFSTANDARDANSI
  2
AcmFCFStdANSI
  3
"Amdt_StdImp|Product Description: AutoCAD Mechanical|Company: Autodesk"
 90
    32768
280
     0
281
     0
  0
CLASS
  1
ACMWELDSTANDARDANSI
  2
AcmWeldingStdANSI
  3
"Amdt_StdImp|Product Description: AutoCAD Mechanical|Company: Autodesk"
 90
    32768
280
     0
281
     0
  0
CLASS
  1
ACMIDSTANDARDANSI
  2
AcmIdStdANSI
  3
"Amdt_StdImp|Product Description: AutoCAD Mechanical|Company: Autodesk"
 90
    32768
280
     0
281
     0
  0
CLASS
  1
ACMDATUMSTANDARDANSI
  2
AcmDatumStdANSI
  3
"Amdt_StdImp|Product Description: AutoCAD Mechanical|Company: Autodesk"
 90
    32768
280
     0
281
     0
  0
CLASS
  1
ACMBOMSTANDARDANSI
  2
AcmBOMStdANSI
  3
"Amdt_StdImp|Product Description: AutoCAD Mechanical|Company: Autodesk"
 90
    32768
280
     0
281
     0
  0
CLASS
  1
ACMDETAILSTANDARDANSI
  2
AmdtDetailSymStdANSI
  3
"Amdt_StdImp|Product Description: AutoCAD Mechanical|Company: Autodesk"
 90
    32768
280
     0
281
     0
  0
CLASS
  1
ACMSECTIONSTANDARDANSI
  2
AmdtSectionSymStdANSI
  3
"Amdt_StdImp|Product Description: AutoCAD Mechanical|Company: Autodesk"
 90
    32768
280
     0
281
     0
  0
CLASS
  1
ACMCENTERLINESTANDARDANSI
  2
AmdtCenterLineStdANSI
  3
"Amdt_StdImp|Product Description: AutoCAD Mechanical|Company: Autodesk"
 90
    32768
280
     0
281
     0
  0
CLASS
  1
ACMTHREADLINESTANDARDANSI
  2
AmdtThreadLineStdANSI
  3
"Amdt_StdImp|Product Description: AutoCAD Mechanical|Company: Autodesk"
 90
    32768
280
     0
281
     0
  0
CLASS
  1
ACMNOTESTANDARDANSI
  2
AmdtNoteStdANSI
  3
"Amdt_StdImp|Product Description: AutoCAD Mechanical|Company: Autodesk"
 90
    32768
280
     0
281
     0
  0
CLASS
  1
ACMTAPERSTANDARDANSI
  2
AcmTaperStdANSI
  3
"Amdt_StdImp|Product Description: AutoCAD Mechanical|Company: Autodesk"
 90
    32768
280
     0
281
     0
  0
CLASS
  1
AMDTNOTETEMPLATEDB
  2
AmdtNoteTemplateDB
  3
AMDT_STDIMP_MODULE_NAME
 90
    32768
280
     0
281
     0
  0
CLASS
  1
ACAMGLAYSTD
  2
AcAmgLayStd
  3
"AmgLay|Product Description: AutoCAD Mechanical|Company: Autodesk"
 90
    32768
280
     0
281
     0
  0
CLASS
  1
ACAMGDIMSTD
  2
AcAmgDimStd
  3
"AmgDim|Product Description: AutoCAD Mechanical|Company: Autodesk"
 90
    32768
280
     0
281
     0
  0
CLASS
  1
ACAMGHOLECHARTSTDANSI
  2
AcAmgHoleChartStdANSI
  3
ACMSYMBB_MODULE_NAME
 90
    32768
280
     0
281
     0
  0
CLASS
  1
ACAMGTITLESTD
  2
AcAmgTitleStd
  3
"AmgTitle|Product Description: AutoCAD Mechanical|Company: Autodesk"
 90
    32768
280
     0
281
     0
  0
CLASS
  1
ACAMGFILTERDAT
  2
AcAmgFilterDat
  3
"AcadM|Product Description: AutoCAD Mechanical|Company: Autodesk"
 90
    32768
280
     0
281
     0
  0
CLASS
  1
SORTENTSTABLE
  2
AcDbSortentsTable
  3
AutoCAD 2000
 90
    32768
280
     0
281
     0
  0
CLASS
  1
ACMSTANDARDISO
  2
AcmStandardISO
  3
"Amdt_StdImp|Product Description: AutoCAD Mechanical|Company: Autodesk"
 90
    32768
280
     0
281
     0
  0
CLASS
  1
AMDTEDGESTANDARDISO13715
  2
AmdtEdgeStdISO13715
  3
"Amdt_StdImp|Product Description: AutoCAD Mechanical|Company: Autodesk"
 90
    32768
280
     0
281
     0
  0
CLASS
  1
ACMSURFSTANDARDISO
  2
AcmSurfTextStdISO
  3
"Amdt_StdImp|Product Description: AutoCAD Mechanical|Company: Autodesk"
 90
    32768
280
     0
281
     0
  0
CLASS
  1
ACMFCFSTANDARDISO
  2
AcmFCFStdISO
  3
"Amdt_StdImp|Product Description: AutoCAD Mechanical|Company: Autodesk"
 90
    32768
280
     0
281
     0
  0
CLASS
  1
ACMWELDSTANDARDISO
  2
AcmWeldingStdISO
  3
"Amdt_StdImp|Product Description: AutoCAD Mechanical|Company: Autodesk"
 90
    32768
280
     0
281
     0
  0
CLASS
  1
ACMIDSTANDARDISO
  2
AcmIdStdISO
  3
"Amdt_StdImp|Product Description: AutoCAD Mechanical|Company: Autodesk"
 90
    32768
280
     0
281
     0
  0
CLASS
  1
ACMDATUMSTANDARDISO
  2
AcmDatumStdISO
  3
"Amdt_StdImp|Product Description: AutoCAD Mechanical|Company: Autodesk"
 90
    32768
280
     0
281
     0
  0
CLASS
  1
ACMBOMSTANDARDISO
  2
AcmBOMStdISO
  3
"Amdt_StdImp|Product Description: AutoCAD Mechanical|Company: Autodesk"
 90
    32768
280
     0
281
     0
  0
CLASS
  1
ACMDETAILSTANDARDISO
  2
AmdtDetailSymStdISO
  3
"Amdt_StdImp|Product Description: AutoCAD Mechanical|Company: Autodesk"
 90
    32768
280
     0
281
     0
  0
CLASS
  1
ACMSECTIONSTANDARDISO
  2
AmdtSectionSymStdISO
  3
"Amdt_StdImp|Product Description: AutoCAD Mechanical|Company: Autodesk"
 90
    32768
280
     0
281
     0
  0
CLASS
  1
ACMCENTERLINESTANDARDISO
  2
AmdtCenterLineStdISO
  3
"Amdt_StdImp|Product Description: AutoCAD Mechanical|Company: Autodesk"
 90
    32768
280
     0
281
     0
  0
CLASS
  1
ACMTHREADLINESTANDARDISO
  2
AmdtThreadLineStdISO
  3
"Amdt_StdImp|Product Description: AutoCAD Mechanical|Company: Autodesk"
 90
    32768
280
     0
281
     0
  0
CLASS
  1
ACMNOTESTANDARDISO
  2
AmdtNoteStdISO
  3
"Amdt_StdImp|Product Description: AutoCAD Mechanical|Company: Autodesk"
 90
    32768
280
     0
281
     0
  0
CLASS
  1
ACMTAPERSTANDARDISO
  2
AcmTaperStdISO
  3
"Amdt_StdImp|Product Description: AutoCAD Mechanical|Company: Autodesk"
 90
    32768
280
     0
281
     0
  0
CLASS
  1
ACAMGHOLECHARTSTDISO
  2
AcAmgHoleChartStdISO
  3
ACMSYMBB_MODULE_NAME
 90
    32768
280
     0
281
     0
  0
CLASS
  1
DICTIONARYVAR
  2
AcDbDictionaryVar
  3
AutoCAD 2000
 90
    32768
280
     0
281
     0
  0
CLASS
  1
ACDBPLACEHOLDER
  2
AcDbPlaceHolder
  3
AutoCAD 2000
 90
    32768
280
     0
281
     0
  0
CLASS
  1
LAYOUT
  2
AcDbLayout
  3
AutoCAD 2000
 90
    32768
280
     0
281
     0
  0
CLASS
  1
PLOTSETTINGS
  2
AcDbPlotSettings
  3
AutoCAD 2000
 90
    32768
280
     0
281
     0
  0
CLASS
  1
ACAD_PROXY_OBJECT_WRAPPER
  2
AcDbProxyObjectWrapper
  3
AutoCAD 2000
 90
    32768
280
     0
281
     0
  0
CLASS
  1
LONG_TRANSACTION
  2
AcDbLongTransaction
  3
AutoCAD 2000
 90
    32768
280
     0
281
     0
  0
CLASS
  1
LWPOLYLINE
  2
AcDbPolyline
  3
AutoCAD 2000
 90
    32768
280
     0
281
     1
  0
CLASS
  1
HATCH
  2
AcDbHatch
  3
AutoCAD 2000
 90
    32768
280
     0
281
     1
  0
CLASS
  1
XRECORD
  2
AcDbXrecord
  3
AutoCAD 2000
 90
    32768
280
     0
281
     0
  0
ENDSEC
  0
SECTION
  2
TABLES
  0
TABLE
  2
VPORT
  5
1B868
102
{ACAD_XDICTIONARY
360
1BB85
102
}
330
0
100
AcDbSymbolTable
 70
     2
  0
VPORT
  5
1CC6F
330
1B868
100
AcDbSymbolTableRecord
100
AcDbViewportTableRecord
  2
*ACTIVE
 70
     0
 10
0.0
 20
0.0
 11
1.0
 21
1.0
 12
4682.906497439494
 22
226.2953876488832
 13
0.0
 23
0.0
 14
5.0
 24
5.0
 15
20.0
 25
20.0
 16
0.0
 26
0.0
 36
1.0
 17
0.0
 27
0.0
 37
0.0
 40
627.8353638245085
 41
2.520694259012016
 42
50.0
 43
0.0
 44
0.0
 50
0.0
 51
0.0
 71
    16
 72
   100
 73
     1
 74
     1
 75
     0
 76
     0
 77
     0
 78
     0
  0
ENDTAB
  0
TABLE
  2
LTYPE
  5
1B865
330
0
100
AcDbSymbolTable
 70
    25
  0
LTYPE
  5
1B888
330
1B865
100
AcDbSymbolTableRecord
100
AcDbLinetypeTableRecord
  2
BYBLOCK
 70
     0
  3

 72
    65
 73
     0
 40
0.0
  0
LTYPE
  5
1B889
330
1B865
100
AcDbSymbolTableRecord
100
AcDbLinetypeTableRecord
  2
BYLAYER
 70
     0
  3

 72
    65
 73
     0
 40
0.0
  0
LTYPE
  5
1B88A
330
1B865
100
AcDbSymbolTableRecord
100
AcDbLinetypeTableRecord
  2
CONTINUOUS
 70
     0
  3
Solid line
 72
    65
 73
     0
 40
0.0
  0
LTYPE
  5
1B8A2
330
1B865
100
AcDbSymbolTableRecord
100
AcDbLinetypeTableRecord
  2
AM_ISO02W050
 70
     0
  3
__ __ __ __ __ __ __ __ __ __ __ __ __ __ __
 72
    65
 73
     2
 40
7.5
 49
6.0
 74
     0
 49
-1.5
 74
     0
  0
LTYPE
  5
1B8A3
330
1B865
100
AcDbSymbolTableRecord
100
AcDbLinetypeTableRecord
  2
AMZIGZAG
 70
     0
  3
/\/-/\/-/\/-/\/-/\/-/\/
 72
    65
 73
     2
 40
11.00009999999999
 49
0.0001
 74
     0
 49
-11.0
 74
     0
  0
LTYPE
  5
1B8A4
330
1B865
100
AcDbSymbolTableRecord
100
AcDbLinetypeTableRecord
  2
ACJISTGB
 70
     0
  3
__ . . __ . .
 72
    65
 73
     6
 40
9.0
 49
4.0
 74
     0
 49
-1.0
 74
     0
 49
1.0
 74
     0
 49
-1.0
 74
     0
 49
1.0
 74
     0
 49
-1.0
 74
     0
  0
LTYPE
  5
1B8A5
330
1B865
100
AcDbSymbolTableRecord
100
AcDbLinetypeTableRecord
  2
ACJISTGL
 70
     0
  3
_ _ _ _ _
 72
    65
 73
     2
 40
3.0
 49
2.0
 74
     0
 49
-1.0
 74
     0
  0
LTYPE
  5
1B8A6
330
1B865
100
AcDbSymbolTableRecord
100
AcDbLinetypeTableRecord
  2
DASHED1
 70
     0
  3
--  --  --  --  --  --  --  --  
 72
    65
 73
     2
 40
2.5
 49
1.25
 74
     0
 49
-1.25
 74
     0
  0
LTYPE
  5
1B8A7
330
1B865
100
AcDbSymbolTableRecord
100
AcDbLinetypeTableRecord
  2
ACJISWELD
 70
     0
  3
_ _ _ _ _
 72
    65
 73
     2
 40
3.0
 49
2.0
 74
     0
 49
-1.0
 74
     0
  0
LTYPE
  5
1B8A8
330
1B865
100
AcDbSymbolTableRecord
100
AcDbLinetypeTableRecord
  2
AM_ISO08W050
 70
     0
  3
____ . ____ . ____ . ____ . ____ . ____ . ____
 72
    65
 73
     4
 40
18.0
 49
12.0
 74
     0
 49
-1.5
 74
     0
 49
3.0
 74
     0
 49
-1.5
 74
     0
  0
LTYPE
  5
1B8A9
330
1B865
100
AcDbSymbolTableRecord
100
AcDbLinetypeTableRecord
  2
AM_ISO09W050
 70
     0
  3
_____ . . _____ . . _____ . . ____ .. ____
 72
    65
 73
     6
 40
22.5
 49
12.0
 74
     0
 49
-1.5
 74
     0
 49
3.0
 74
     0
 49
-1.5
 74
     0
 49
3.0
 74
     0
 49
-1.5
 74
     0
  0
LTYPE
  5
1B8AA
330
1B865
100
AcDbSymbolTableRecord
100
AcDbLinetypeTableRecord
  2
AMCONSTR
 70
     0
  3
_______________________
 72
    65
 73
     2
 40
9999.0
 49
9999.0
 74
     0
 49
0.0
 74
     0
  0
LTYPE
  5
1B8AB
330
1B865
100
AcDbSymbolTableRecord
100
AcDbLinetypeTableRecord
  2
AM_ISO08W050X2
 70
     0
  3
__ . __ . __ . __ . __ . __
 72
    65
 73
     4
 40
9.0
 49
6.0
 74
     0
 49
-0.75
 74
     0
 49
1.5
 74
     0
 49
-0.75
 74
     0
  0
LTYPE
  5
1B8AC
330
1B865
100
AcDbSymbolTableRecord
100
AcDbLinetypeTableRecord
  2
AM_ISO02W050X2
 70
     0
  3
 _ _ _ _ _ _ _ _ _ _ _ _
 72
    65
 73
     2
 40
3.75
 49
3.0
 74
     0
 49
-0.75
 74
     0
  0
LTYPE
  5
1B8AD
330
1B865
100
AcDbSymbolTableRecord
100
AcDbLinetypeTableRecord
  2
DD1
 70
     0
  3
一点鎖線
 72
    65
 73
     4
 40
11.1
 49
7.5
 74
     0
 49
-1.199999999999999
 74
     0
 49
1.199999999999999
 74
     0
 49
-1.199999999999999
 74
     0
  0
LTYPE
  5
1B951
330
1B865
100
AcDbSymbolTableRecord
100
AcDbLinetypeTableRecord
  2
HIDDEN
 70
     0
  3
Hidden __ __ __ __ __ __ __ __ __ __ __ __ __ _
 72
    65
 73
     2
 40
0.375
 49
0.25
 74
     0
 49
-0.125
 74
     0
  0
LTYPE
  5
1B952
330
1B865
100
AcDbSymbolTableRecord
100
AcDbLinetypeTableRecord
  2
PHANTOM2
 70
     0
  3
Phantom (.5x) ___ _ _ ___ _ _ ___ _ _ ___ _ _
 72
    65
 73
     6
 40
1.25
 49
0.625
 74
     0
 49
-0.125
 74
     0
 49
0.125
 74
     0
 49
-0.125
 74
     0
 49
0.125
 74
     0
 49
-0.125
 74
     0
  0
LTYPE
  5
1B953
330
1B865
100
AcDbSymbolTableRecord
100
AcDbLinetypeTableRecord
  2
CENTER
 70
     0
  3
Center ____ _ ____ _ ____ _ ____ _ ____ _ ____
 72
    65
 73
     4
 40
2.0
 49
1.25
 74
     0
 49
-0.25
 74
     0
 49
0.25
 74
     0
 49
-0.25
 74
     0
  0
LTYPE
  5
1B987
330
1B865
100
AcDbSymbolTableRecord
100
AcDbLinetypeTableRecord
  2
CENTER2
 70
     0
  3
Center (.5x) ___ _ ___ _ ___ _ ___ _ ___ _ ___
 72
    65
 73
     4
 40
1.125
 49
0.75
 74
     0
 49
-0.125
 74
     0
 49
0.125
 74
     0
 49
-0.125
 74
     0
  0
LTYPE
  5
1B988
330
1B865
100
AcDbSymbolTableRecord
100
AcDbLinetypeTableRecord
  2
HIDDEN2
 70
     0
  3
Hidden (.5x) _ _ _ _ _ _ _ _ _ _ _ _ _ _ _ _ _
 72
    65
 73
     2
 40
0.1875
 49
0.125
 74
     0
 49
-0.0625
 74
     0
  0
LTYPE
  5
1B98B
330
1B865
100
AcDbSymbolTableRecord
100
AcDbLinetypeTableRecord
  2
AMZIGZAG2
 70
     0
  3
/\/-/\/-/\/-/\/-/\/-/\/
 72
    65
 73
     2
 40
0.4401
 49
0.0001
 74
     4
 75
   136
340
1B98A
 46
0.0016
 50
0.0
 44
0.0
 45
0.0
 49
-0.4400000000000001
 74
     0
  0
LTYPE
  5
1B99A
330
1B865
100
AcDbSymbolTableRecord
100
AcDbLinetypeTableRecord
  2
ACANSTGB
 70
     0
  3
__ . . __ . .
 72
    65
 73
     6
 40
0.35433070866
 49
0.15748031496
 74
     0
 49
-0.03937007874
 74
     0
 49
0.03937007874
 74
     0
 49
-0.03937007874
 74
     0
 49
0.03937007874
 74
     0
 49
-0.03937007874
 74
     0
  0
LTYPE
  5
1B99B
330
1B865
100
AcDbSymbolTableRecord
100
AcDbLinetypeTableRecord
  2
ACANSTGL
 70
     0
  3
_ _ _ _ _
 72
    65
 73
     2
 40
0.11811023622
 49
0.07874015748
 74
     0
 49
-0.03937007874
 74
     0
  0
LTYPE
  5
1B9C1
330
1B865
100
AcDbSymbolTableRecord
100
AcDbLinetypeTableRecord
  2
ACISOWELD
 70
     0
  3
_ _ _ _ _
 72
    65
 73
     2
 40
2.0
 49
2.0
 74
     0
 49
-1.0
 74
     0
  0
LTYPE
  5
1B9C2
330
1B865
100
AcDbSymbolTableRecord
100
AcDbLinetypeTableRecord
  2
ACISOTGB
 70
     0
  3
__ . . __ . .
 72
    65
 73
     6
 40
9.0
 49
4.0
 74
     0
 49
-1.0
 74
     0
 49
1.0
 74
     0
 49
-1.0
 74
     0
 49
1.0
 74
     0
 49
-1.0
 74
     0
  0
LTYPE
  5
1B9C3
330
1B865
100
AcDbSymbolTableRecord
100
AcDbLinetypeTableRecord
  2
ACISOTGL
 70
     0
  3
_ _ _ _ _
 72
    65
 73
     2
 40
3.0
 49
2.0
 74
     0
 49
-1.0
 74
     0
  0
LTYPE
  5
1CA0E
330
1B865
100
AcDbSymbolTableRecord
100
AcDbLinetypeTableRecord
  2
CENTER1
 70
     0
  3
----- - ----- - ----- - ----- - 
 72
    65
 73
     4
 40
10.0
 49
6.25
 74
     0
 49
-1.25
 74
     0
 49
1.25
 74
     0
 49
-1.25
 74
     0
  0
ENDTAB
  0
TABLE
  2
LAYER
  5
1B862
102
{ACAD_XDICTIONARY
360
1B9CE
102
}
330
0
100
AcDbSymbolTable
 70
    12
  0
LAYER
  5
1B885
102
{ACAD_XDICTIONARY
360
1C9DB
102
}
330
1B862
100
AcDbSymbolTableRecord
100
AcDbLayerTableRecord
  2
0
 70
     0
 62
     7
  6
CONTINUOUS
  0
LAYER
  5
1B905
102
{ACAD_XDICTIONARY
360
1C9EF
102
}
330
1B862
100
AcDbSymbolTableRecord
100
AcDbLayerTableRecord
  2
AM_0
 70
     0
 62
     7
  6
CONTINUOUS
  0
LAYER
  5
1B906
102
{ACAD_XDICTIONARY
360
1C9F1
102
}
330
1B862
100
AcDbSymbolTableRecord
100
AcDbLayerTableRecord
  2
AM_5
 70
     0
 62
     3
  6
CONTINUOUS
  0
LAYER
  5
1B907
102
{ACAD_XDICTIONARY
360
1C9F3
102
}
330
1B862
100
AcDbSymbolTableRecord
100
AcDbLayerTableRecord
  2
DEFPOINTS
 70
     1
 62
    -7
  6
CONTINUOUS
  0
LAYER
  5
1B908
102
{ACAD_XDICTIONARY
360
1C9F5
102
}
330
1B862
100
AcDbSymbolTableRecord
100
AcDbLayerTableRecord
  2
CONT_S_2
 70
     0
 62
     2
  6
CONTINUOUS
  0
LAYER
  5
1B909
102
{ACAD_XDICTIONARY
360
1C9F7
102
}
330
1B862
100
AcDbSymbolTableRecord
100
AcDbLayerTableRecord
  2
MJ
 70
     0
 62
     2
  6
CONTINUOUS
  0
LAYER
  5
1B90A
102
{ACAD_XDICTIONARY
360
1C9F9
102
}
330
1B862
100
AcDbSymbolTableRecord
100
AcDbLayerTableRecord
  2
OS
 70
     0
 62
     2
  6
CONTINUOUS
  0
LAYER
  5
1B90B
102
{ACAD_XDICTIONARY
360
1C9FB
102
}
330
1B862
100
AcDbSymbolTableRecord
100
AcDbLayerTableRecord
  2
WK
 70
     0
 62
     7
  6
CONTINUOUS
  0
LAYER
  5
1B90C
102
{ACAD_XDICTIONARY
360
1C9FD
102
}
330
1B862
100
AcDbSymbolTableRecord
100
AcDbLayerTableRecord
  2
AM_2
 70
     0
 62
     4
  6
CONTINUOUS
  0
LAYER
  5
1B90D
102
{ACAD_XDICTIONARY
360
1C9FF
102
}
330
1B862
100
AcDbSymbolTableRecord
100
AcDbLayerTableRecord
  2
________
 70
     0
 62
     4
  6
DD1
  0
LAYER
  5
1B90E
102
{ACAD_XDICTIONARY
360
1CA01
102
}
330
1B862
100
AcDbSymbolTableRecord
100
AcDbLayerTableRecord
  2
TS
 70
     0
 62
     6
  6
DASHED1
  0
LAYER
  5
1BA50
102
{ACAD_XDICTIONARY
360
1BA51
102
}
330
1B862
100
AcDbSymbolTableRecord
100
AcDbLayerTableRecord
  2
１点斜線
 70
     0
 62
     4
  6
DD1
1001
ACAECLAYERSTANDARD
1000

1000

1001
ACCMTRANSPARENCY
1071
 33554687
  0
ENDTAB
  0
TABLE
  2
STYLE
  5
1B863
330
0
100
AcDbSymbolTable
 70
     9
  0
STYLE
  5
1B886
330
1B863
100
AcDbSymbolTableRecord
100
AcDbTextStyleTableRecord
  2
STANDARD
 70
     0
 40
0.0
 41
0.8299999999999998
 50
0.0
 71
     0
 42
2.5
  3
romans.shx
  4
extfont2.shx
  0
STYLE
  5
1B89F
330
1B863
100
AcDbSymbolTableRecord
100
AcDbTextStyleTableRecord
  2
ACJISGDT
 70
     0
 40
0.0
 41
1.0
 50
0.0
 71
     0
 42
2.5
  3
amgdt.shx
  4

  0
STYLE
  5
1B8A0
330
1B863
100
AcDbSymbolTableRecord
100
AcDbTextStyleTableRecord
  2
SIMPLEX
 70
     0
 40
0.0
 41
1.0
 50
0.0
 71
     0
 42
3.5
  3
simplex.shx
  4
extfont2.shx
  0
STYLE
  5
1B8A1
330
1B863
100
AcDbSymbolTableRecord
100
AcDbTextStyleTableRecord
  2
SIMPLEXT
 70
     4
 40
0.0
 41
1.0
 50
0.0
 71
     0
 42
2.5
  3
simplex.shx
  4
extfont2.shx
  0
STYLE
  5
1B98A
330
1B863
100
AcDbSymbolTableRecord
100
AcDbTextStyleTableRecord
  2

 70
     1
 40
0.0
 41
1.0
 50
0.0
 71
     0
 42
2.5
  3
genltshp.shx
  4

  0
STYLE
  5
1B98C
330
1B863
100
AcDbSymbolTableRecord
100
AcDbTextStyleTableRecord
  2
ACANSTS
 70
     0
 40
1.0
 41
1.0
 50
0.0
 71
     0
 42
2.5
  3
romans.shx
  4
extfont.shx
  0
STYLE
  5
1B999
330
1B863
100
AcDbSymbolTableRecord
100
AcDbTextStyleTableRecord
  2
ACANSGDT
 70
     0
 40
0.0
 41
1.0
 50
0.0
 71
     0
 42
2.5
  3
amgdt.shx
  4

  0
STYLE
  5
1B9C4
330
1B863
100
AcDbSymbolTableRecord
100
AcDbTextStyleTableRecord
  2
ACISOTS
 70
     0
 40
1.0
 41
1.0
 50
0.0
 71
     0
 42
2.5
  3
isocp.shx
  4
extfont.shx
  0
STYLE
  5
1B9C5
330
1B863
100
AcDbSymbolTableRecord
100
AcDbTextStyleTableRecord
  2
ACISOGDT
 70
     0
 40
0.0
 41
1.0
 50
0.0
 71
     0
 42
2.5
  3
amgdt.shx
  4

  0
ENDTAB
  0
TABLE
  2
VIEW
  5
1B866
330
0
100
AcDbSymbolTable
 70
     6
  0
VIEW
  5
1B8AE
102
{ACAD_XDICTIONARY
360
1C9E3
102
}
330
1B866
100
AcDbSymbolTableRecord
100
AcDbViewTableRecord
  2
AM_VIEW1
 70
     0
 40
351.5943593853809
 10
-869.4999962207091
 20
-329.7971788144017
 41
420.9999991601575
 11
0.0
 21
0.0
 31
1.0
 12
0.0
 22
0.0
 32
0.0
 42
50.0
 43
0.0
 44
0.0
 50
0.0
 71
     0
  0
VIEW
  5
1B8AF
102
{ACAD_XDICTIONARY
360
1C9E5
102
}
330
1B866
100
AcDbSymbolTableRecord
100
AcDbViewTableRecord
  2
AM_VIEW2
 70
     0
 40
351.5943593853809
 10
-448.4999970605516
 20
-329.7971788144017
 41
420.9999991601575
 11
0.0
 21
0.0
 31
1.0
 12
0.0
 22
0.0
 32
0.0
 42
50.0
 43
0.0
 44
0.0
 50
0.0
 71
     0
  0
VIEW
  5
1B8B0
102
{ACAD_XDICTIONARY
360
1C9E7
102
}
330
1B866
100
AcDbSymbolTableRecord
100
AcDbViewTableRecord
  2
AM_VIEW3
 70
     0
 40
351.5943593853809
 10
-869.4999962207091
 20
-574.2028188434947
 41
420.9999991601575
 11
0.0
 21
0.0
 31
1.0
 12
0.0
 22
0.0
 32
0.0
 42
50.0
 43
0.0
 44
0.0
 50
0.0
 71
     0
  0
VIEW
  5
1B8B1
102
{ACAD_XDICTIONARY
360
1C9E9
102
}
330
1B866
100
AcDbSymbolTableRecord
100
AcDbViewTableRecord
  2
AM_VIEW4
 70
     0
 40
351.5943593853809
 10
-448.4999970605516
 20
-574.2028188434947
 41
420.9999991601575
 11
0.0
 21
0.0
 31
1.0
 12
0.0
 22
0.0
 32
0.0
 42
50.0
 43
0.0
 44
0.0
 50
0.0
 71
     0
  0
VIEW
  5
1B8B2
102
{ACAD_XDICTIONARY
360
1C9EB
102
}
330
1B866
100
AcDbSymbolTableRecord
100
AcDbViewTableRecord
  2
AM_VIEW5
 70
     0
 40
351.5943593853809
 10
-658.9999966406303
 20
-451.9999988289483
 41
420.9999991601575
 11
0.0
 21
0.0
 31
1.0
 12
0.0
 22
0.0
 32
0.0
 42
50.0
 43
0.0
 44
0.0
 50
0.0
 71
     0
  0
VIEW
  5
1B8B3
102
{ACAD_XDICTIONARY
360
1C9ED
102
}
330
1B866
100
AcDbSymbolTableRecord
100
AcDbViewTableRecord
  2
AM_VIEW6
 70
     0
 40
703.1816868835744
 10
-658.9999966406303
 20
-451.9999988289483
 41
841.9915783203318
 11
0.0
 21
0.0
 31
1.0
 12
0.0
 22
0.0
 32
0.0
 42
50.0
 43
0.0
 44
0.0
 50
0.0
 71
     0
  0
ENDTAB
  0
TABLE
  2
UCS
  5
1B867
330
0
100
AcDbSymbolTable
 70
     0
  0
ENDTAB
  0
TABLE
  2
APPID
  5
1B869
330
0
100
AcDbSymbolTable
 70
    75
  0
APPID
  5
1B887
330
1B869
100
AcDbSymbolTableRecord
100
AcDbRegAppTableRecord
  2
ACAD
 70
     0
  0
APPID
  5
1B8B5
330
1B869
100
AcDbSymbolTableRecord
100
AcDbRegAppTableRecord
  2
MCAD_NO_VIS
 70
     0
  0
APPID
  5
1B8B6
330
1B869
100
AcDbSymbolTableRecord
100
AcDbRegAppTableRecord
  2
ACAD_TEMP_GRAPHIC
 70
     0
  0
APPID
  5
1B8B7
330
1B869
100
AcDbSymbolTableRecord
100
AcDbRegAppTableRecord
  2
ACATTRIBSERVICES
 70
     0
  0
APPID
  5
1B8B8
330
1B869
100
AcDbSymbolTableRecord
100
AcDbRegAppTableRecord
  2
GENIUS_GENDIMSH_14
 70
     0
  0
APPID
  5
1B8B9
330
1B869
100
AcDbSymbolTableRecord
100
AcDbRegAppTableRecord
  2
GENIUS_GENOLIS_13
 70
     0
  0
APPID
  5
1B8BA
330
1B869
100
AcDbSymbolTableRecord
100
AcDbRegAppTableRecord
  2
GENIUS_GENOENT_13
 70
     0
  0
APPID
  5
1B8BB
330
1B869
100
AcDbSymbolTableRecord
100
AcDbRegAppTableRecord
  2
GENIUS_GENOBJ-N-TIT_13
 70
     0
  0
APPID
  5
1B8BC
330
1B869
100
AcDbSymbolTableRecord
100
AcDbRegAppTableRecord
  2
GENIUS_GENODEF_13
 70
     0
  0
APPID
  5
1B8BD
330
1B869
100
AcDbSymbolTableRecord
100
AcDbRegAppTableRecord
  2
GENIUS_GENTITLE_13
 70
     0
  0
APPID
  5
1B8BE
330
1B869
100
AcDbSymbolTableRecord
100
AcDbRegAppTableRecord
  2
GENIUS_GENOREF_13
 70
     0
  0
APPID
  5
1B8BF
330
1B869
100
AcDbSymbolTableRecord
100
AcDbRegAppTableRecord
  2
GENIUS_GENSCREG_15
 70
     0
  0
APPID
  5
1B8C0
330
1B869
100
AcDbSymbolTableRecord
100
AcDbRegAppTableRecord
  2
GENIUS_GENOBJ-N-SDF_13
 70
     0
  0
APPID
  5
1B8C1
330
1B869
100
AcDbSymbolTableRecord
100
AcDbRegAppTableRecord
  2
GENIUS_GENOBJ-N-REV_13
 70
     0
  0
APPID
  5
1B8C2
330
1B869
100
AcDbSymbolTableRecord
100
AcDbRegAppTableRecord
  2
GENIUS_GENOBJ-N-RSSYM_13
 70
     0
  0
APPID
  5
1B8C3
330
1B869
100
AcDbSymbolTableRecord
100
AcDbRegAppTableRecord
  2
GENIUS_GENSYMENT_13
 70
     0
  0
APPID
  5
1B8C4
330
1B869
100
AcDbSymbolTableRecord
100
AcDbRegAppTableRecord
  2
GENIUS_GENSCSYM_13
 70
     0
  0
APPID
  5
1B8C5
330
1B869
100
AcDbSymbolTableRecord
100
AcDbRegAppTableRecord
  2
DCO15
 70
     0
  0
APPID
  5
1B8C6
330
1B869
100
AcDbSymbolTableRecord
100
AcDbRegAppTableRecord
  2
GENIUS_GENDTOL_13
 70
     0
  0
APPID
  5
1B8C7
330
1B869
100
AcDbSymbolTableRecord
100
AcDbRegAppTableRecord
  2
HC_SUPERPART
 70
     0
  0
APPID
  5
1B8C8
330
1B869
100
AcDbSymbolTableRecord
100
AcDbRegAppTableRecord
  2
HC_SP4BLOCK
 70
     0
  0
APPID
  5
1B8C9
330
1B869
100
AcDbSymbolTableRecord
100
AcDbRegAppTableRecord
  2
HC_XDATA_SPRING
 70
     0
  0
APPID
  5
1B8CA
330
1B869
100
AcDbSymbolTableRecord
100
AcDbRegAppTableRecord
  2
HCCAD_FRAME
 70
     0
  0
APPID
  5
1B8CB
330
1B869
100
AcDbSymbolTableRecord
100
AcDbRegAppTableRecord
  2
GENIUS_GENOBJ-N-ZOO_13
 70
     0
  0
APPID
  5
1B8CC
330
1B869
100
AcDbSymbolTableRecord
100
AcDbRegAppTableRecord
  2
GENIUS_GENREV_15
 70
     0
  0
APPID
  5
1B8CD
330
1B869
100
AcDbSymbolTableRecord
100
AcDbRegAppTableRecord
  2
HRA
 70
     0
  0
APPID
  5
1B8CE
330
1B869
100
AcDbSymbolTableRecord
100
AcDbRegAppTableRecord
  2
HTIT
 70
     0
  0
APPID
  5
1B8CF
330
1B869
100
AcDbSymbolTableRecord
100
AcDbRegAppTableRecord
  2
GENIUS_GENZOO_17
 70
     0
  0
APPID
  5
1B8D0
330
1B869
100
AcDbSymbolTableRecord
100
AcDbRegAppTableRecord
  2
GENIUS_GENOBJ-N-CEN_13
 70
     0
  0
APPID
  5
1B8D1
330
1B869
100
AcDbSymbolTableRecord
100
AcDbRegAppTableRecord
  2
GENIUS_GENCEN_19
 70
     0
  0
APPID
  5
1B8D2
330
1B869
100
AcDbSymbolTableRecord
100
AcDbRegAppTableRecord
  2
GENIUS_GENOBJ-N-CRS_13
 70
     0
  0
APPID
  5
1B8D3
330
1B869
100
AcDbSymbolTableRecord
100
AcDbRegAppTableRecord
  2
GENIUS_GENCRS_20
 70
     0
  0
APPID
  5
1B8D4
330
1B869
100
AcDbSymbolTableRecord
100
AcDbRegAppTableRecord
  2
GENIUS_GENOBJ-N-CRC_13
 70
     0
  0
APPID
  5
1B8D5
330
1B869
100
AcDbSymbolTableRecord
100
AcDbRegAppTableRecord
  2
GENIUS_GENCRC_14
 70
     0
  0
APPID
  5
1B8D6
330
1B869
100
AcDbSymbolTableRecord
100
AcDbRegAppTableRecord
  2
GENIUS_GENFIL_13
 70
     0
  0
APPID
  5
1B8D7
330
1B869
100
AcDbSymbolTableRecord
100
AcDbRegAppTableRecord
  2
GENIUS_GENOBJ-N-CHA_13
 70
     0
  0
APPID
  5
1B8D8
330
1B869
100
AcDbSymbolTableRecord
100
AcDbRegAppTableRecord
  2
GENIUS_GENOBJ-N-FIL_13
 70
     0
  0
APPID
  5
1B8D9
330
1B869
100
AcDbSymbolTableRecord
100
AcDbRegAppTableRecord
  2
GENIUS_GENHATCH_13
 70
     0
  0
APPID
  5
1B8DA
330
1B869
100
AcDbSymbolTableRecord
100
AcDbRegAppTableRecord
  2
GENIUS_GENOBJ-N-HTC_13
 70
     0
  0
APPID
  5
1B8DB
330
1B869
100
AcDbSymbolTableRecord
100
AcDbRegAppTableRecord
  2
GENIUS_GENDIM_13
 70
     0
  0
APPID
  5
1B8DC
330
1B869
100
AcDbSymbolTableRecord
100
AcDbRegAppTableRecord
  2
GENIUS_GENOBJ-N-DIM_13
 70
     0
  0
APPID
  5
1B8DD
330
1B869
100
AcDbSymbolTableRecord
100
AcDbRegAppTableRecord
  2
GENIUS_GENOBJ-N-DIMLI_13
 70
     0
  0
APPID
  5
1B8DE
330
1B869
100
AcDbSymbolTableRecord
100
AcDbRegAppTableRecord
  2
GENIUS_GENOBJ-N-FITL_13
 70
     0
  0
APPID
  5
1B8DF
330
1B869
100
AcDbSymbolTableRecord
100
AcDbRegAppTableRecord
  2
GENIUS_GENFITL_13
 70
     0
  0
APPID
  5
1B8E0
330
1B869
100
AcDbSymbolTableRecord
100
AcDbRegAppTableRecord
  2
GENLAYCOLOR
 70
     0
  0
APPID
  5
1B8E1
330
1B869
100
AcDbSymbolTableRecord
100
AcDbRegAppTableRecord
  2
GENIUS_GENOBJ-NBEHI-BHB_13
 70
     0
  0
APPID
  5
1B8E2
330
1B869
100
AcDbSymbolTableRecord
100
AcDbRegAppTableRecord
  2
GENIUS_GENOBJ-NBEHI-BHF_13
 70
     0
  0
APPID
  5
1B8E3
330
1B869
100
AcDbSymbolTableRecord
100
AcDbRegAppTableRecord
  2
GENIUS_GENBH_13
 70
     0
  0
APPID
  5
1B8E4
330
1B869
100
AcDbSymbolTableRecord
100
AcDbRegAppTableRecord
  2
GENIUS_GENBHRL_14
 70
     0
  0
APPID
  5
1B8E5
330
1B869
100
AcDbSymbolTableRecord
100
AcDbRegAppTableRecord
  2
ACAECLAYERSTANDARD
 70
     0
  0
APPID
  5
1B8E6
330
1B869
100
AcDbSymbolTableRecord
100
AcDbRegAppTableRecord
  2
ACAD_MLEADERVER
 70
     0
  0
APPID
  5
1B8E7
330
1B869
100
AcDbSymbolTableRecord
100
AcDbRegAppTableRecord
  2
ACCMTRANSPARENCY
 70
     0
  0
APPID
  5
1B8E8
330
1B869
100
AcDbSymbolTableRecord
100
AcDbRegAppTableRecord
  2
ACAD_DSTYLE_DIMINSPECT
 70
     0
  0
APPID
  5
1B8E9
330
1B869
100
AcDbSymbolTableRecord
100
AcDbRegAppTableRecord
  2
ACADANNOTATIVE
 70
     0
  0
APPID
  5
1B8EA
330
1B869
100
AcDbSymbolTableRecord
100
AcDbRegAppTableRecord
  2
HATCHBACKGROUNDCOLOR
 70
     0
  0
APPID
  5
1B8EB
330
1B869
100
AcDbSymbolTableRecord
100
AcDbRegAppTableRecord
  2
ACAD_DSTYLE_DIMJAG
 70
     0
  0
APPID
  5
1B8EC
330
1B869
100
AcDbSymbolTableRecord
100
AcDbRegAppTableRecord
  2
ACAD_DSTYLE_DIMBREAK
 70
     0
  0
APPID
  5
1B8ED
330
1B869
100
AcDbSymbolTableRecord
100
AcDbRegAppTableRecord
  2
ACAD_DSTYLE_DIMTALN
 70
     0
  0
APPID
  5
1B8EE
330
1B869
100
AcDbSymbolTableRecord
100
AcDbRegAppTableRecord
  2
ACAD_DSTYLE_DIMARC_LENGTH_
 70
     0
  0
APPID
  5
1B8EF
330
1B869
100
AcDbSymbolTableRecord
100
AcDbRegAppTableRecord
  2
ACAD_PSEXT
 70
     0
  0
APPID
  5
1B8F0
330
1B869
100
AcDbSymbolTableRecord
100
AcDbRegAppTableRecord
  2
PLOTTRANSPARENCY
 70
     0
  0
APPID
  5
1B8F1
330
1B869
100
AcDbSymbolTableRecord
100
AcDbRegAppTableRecord
  2
GENIUS_GENREC_14
 70
     0
  0
APPID
  5
1B8F2
330
1B869
100
AcDbSymbolTableRecord
100
AcDbRegAppTableRecord
  2
GENIUS_GENOBJ-N-REC_13
 70
     0
  0
APPID
  5
1B8F3
330
1B869
100
AcDbSymbolTableRecord
100
AcDbRegAppTableRecord
  2
ACAD_DSTYLE_DIM_LINETYPE
 70
     0
  0
APPID
  5
1B8F4
330
1B869
100
AcDbSymbolTableRecord
100
AcDbRegAppTableRecord
  2
ACAD_DSTYLE_DIM_EXT1_LINET
 70
     0
  0
APPID
  5
1B8F5
330
1B869
100
AcDbSymbolTableRecord
100
AcDbRegAppTableRecord
  2
ACAD_DSTYLE_DIM_EXT2_LINET
 70
     0
  0
APPID
  5
1B8F6
330
1B869
100
AcDbSymbolTableRecord
100
AcDbRegAppTableRecord
  2
ACADANNOPO
 70
     0
  0
APPID
  5
1B8F7
330
1B869
100
AcDbSymbolTableRecord
100
AcDbRegAppTableRecord
  2
ACAD_NAV_VCDISPLAY
 70
     0
  0
APPID
  5
1B8F8
330
1B869
100
AcDbSymbolTableRecord
100
AcDbRegAppTableRecord
  2
ACDBBLOCKREPETAG
 70
     0
  0
APPID
  5
1B955
330
1B869
100
AcDbSymbolTableRecord
100
AcDbRegAppTableRecord
  2
AD_DRAW
 70
     0
  0
APPID
  5
1B978
330
1B869
100
AcDbSymbolTableRecord
100
AcDbRegAppTableRecord
  2
DESIGNERASSEMBLIES
 70
     0
  0
APPID
  5
1B97E
330
1B869
100
AcDbSymbolTableRecord
100
AcDbRegAppTableRecord
  2
ACADM_DIM_EDIT
 70
     0
  0
APPID
  5
1B97F
330
1B869
100
AcDbSymbolTableRecord
100
AcDbRegAppTableRecord
  2
AMDT_DM_ADJ
 70
     0
  0
APPID
  5
1B9B6
330
1B869
100
AcDbSymbolTableRecord
100
AcDbRegAppTableRecord
  2
ACAD_EXEMPT_FROM_CAD_STANDARDS
 70
     0
  0
APPID
  5
1BBC5
330
1B869
100
AcDbSymbolTableRecord
100
AcDbRegAppTableRecord
  2
ACAD_DSTYLE_DIMARC_LENGTH0
 70
     0
  0
ENDTAB
  0
TABLE
  2
DIMSTYLE
  5
1B86A
330
0
100
AcDbSymbolTable
 70
    22
  0
DIMSTYLE
105
1B8F9
330
1B86A
100
AcDbSymbolTableRecord
100
AcDbDimStyleTableRecord
  2
AM_JIS
 70
     0
  3

  4
"
  5
OPEN
  6

  7

 40
1.0
 41
1.6
 42
1.0
 43
7.0
 44
1.0
 45
0.0
 46
0.0
 47
0.1
 48
0.1
140
2.5
141
0.0
142
0.0
143
0.0393701
144
1.0
145
0.0
146
0.71
147
0.625
 71
     0
 72
     0
 73
     0
 74
     0
 75
     0
 76
     0
 77
     1
 78
     8
170
     0
171
     2
172
     1
173
     0
174
     0
175
     0
176
   256
177
   256
178
   256
270
     2
271
     4
272
     4
273
     2
274
     2
340
1B886
275
     0
280
     0
281
     0
282
     0
283
     1
284
     8
285
     8
286
     8
287
     5
288
     0
  0
DIMSTYLE
105
1B8FA
330
1B86A
100
AcDbSymbolTableRecord
100
AcDbDimStyleTableRecord
  2
AM_JIS$3
 70
     0
  3

  4
"
  5
OPEN
  6

  7

 40
1.0
 41
1.6
 42
1.0
 43
7.0
 44
1.0
 45
0.0
 46
0.0
 47
0.1
 48
0.1
140
2.5
141
0.0
142
0.0
143
0.0393701
144
1.0
145
0.0
146
0.71
147
0.625
 71
     0
 72
     0
 73
     0
 74
     0
 75
     0
 76
     0
 77
     1
 78
     8
170
     0
171
     2
172
     1
173
     0
174
     0
175
     0
176
   256
177
   256
178
   256
270
     2
271
     4
272
     4
273
     2
274
     2
340
1B886
275
     0
280
     0
281
     0
282
     0
283
     1
284
     8
285
     8
286
     8
287
     5
288
     0
  0
DIMSTYLE
105
1B8FB
330
1B86A
100
AcDbSymbolTableRecord
100
AcDbDimStyleTableRecord
  2
AM_JIS$4
 70
     0
  3

  4
"
  5
OPEN
  6

  7

 40
1.0
 41
1.6
 42
1.0
 43
7.0
 44
1.0
 45
0.0
 46
0.0
 47
0.1
 48
0.1
140
2.5
141
0.0
142
0.0
143
0.0393701
144
1.0
145
0.0
146
0.71
147
0.625
 71
     0
 72
     0
 73
     0
 74
     0
 75
     0
 76
     0
 77
     1
 78
     8
170
     0
171
     2
172
     1
173
     0
174
     0
175
     0
176
   256
177
   256
178
   256
270
     2
271
     4
272
     4
273
     2
274
     2
340
1B886
275
     0
280
     0
281
     0
282
     0
283
     1
284
     8
285
     8
286
     8
287
     5
288
     0
  0
DIMSTYLE
105
1B8FC
330
1B86A
100
AcDbSymbolTableRecord
100
AcDbDimStyleTableRecord
  2
AM_JIS$6
 70
     0
  3

  4
"
  5
OPEN
  6

  7

 40
1.0
 41
1.6
 42
1.0
 43
7.0
 44
1.0
 45
0.0
 46
0.0
 47
0.1
 48
0.1
140
2.5
141
0.0
142
0.0
143
0.0393701
144
1.0
145
0.0
146
0.71
147
0.625
 71
     0
 72
     0
 73
     0
 74
     0
 75
     0
 76
     0
 77
     0
 78
     8
170
     0
171
     2
172
     1
173
     0
174
     0
175
     0
176
   256
177
   256
178
   256
270
     2
271
     4
272
     4
273
     2
274
     2
340
1B886
275
     0
280
     0
281
     0
282
     0
283
     1
284
     8
285
     8
286
     8
287
     5
288
     0
  0
DIMSTYLE
105
1B8FD
330
1B86A
100
AcDbSymbolTableRecord
100
AcDbDimStyleTableRecord
  2
AM_JIS$7
 70
     0
  3

  4
"
  5
OPEN
  6

  7

 40
1.0
 41
1.6
 42
1.0
 43
7.0
 44
1.0
 45
0.0
 46
0.0
 47
0.1
 48
0.1
140
2.5
141
0.0
142
0.0
143
0.0393701
144
1.0
145
0.0
146
0.71
147
0.625
 71
     0
 72
     0
 73
     0
 74
     0
 75
     0
 76
     0
 77
     1
 78
     8
170
     0
171
     2
172
     1
173
     0
174
     0
175
     0
176
   256
177
   256
178
   256
270
     2
271
     4
272
     4
273
     2
274
     2
340
1B886
275
     0
280
     0
281
     0
282
     0
283
     1
284
     8
285
     8
286
     8
287
     5
288
     0
  0
DIMSTYLE
105
1B8FE
330
1B86A
100
AcDbSymbolTableRecord
100
AcDbDimStyleTableRecord
  2
AM_JIS$SF
 70
     0
  3

  4
"
  5
OPEN30
  6
OPEN30
  7
OPEN30
 40
1.0
 41
2.5
 42
1.0
 43
10.0
 44
1.0
 45
0.0
 46
0.0
 47
0.1
 48
0.1
140
3.5
141
0.0
142
0.0
143
0.0393701
144
1.0
145
0.0
146
0.71
147
1.5
 71
     0
 72
     0
 73
     0
 74
     0
 75
     1
 76
     1
 77
     3
 78
     8
170
     0
171
     2
172
     1
173
     0
174
     0
175
     0
176
   256
177
   256
178
     2
270
     2
271
     4
272
     4
273
     2
274
     2
340
1B886
275
     0
280
     0
281
     0
282
     0
283
     1
284
     8
285
     8
286
     8
287
     5
288
     0
  0
DIMSTYLE
105
1B8FF
330
1B86A
100
AcDbSymbolTableRecord
100
AcDbDimStyleTableRecord
  2
AM_JIS$SH
 70
     0
  3

  4
"
  5
OPEN30
  6
GENAXEH
  7
OPEN30
 40
1.0
 41
2.5
 42
1.0
 43
10.0
 44
1.0
 45
0.0
 46
0.0
 47
0.1
 48
0.1
140
3.5
141
0.0
142
0.0
143
0.0393701
144
2.0
145
0.0
146
0.71
147
1.5
 71
     0
 72
     0
 73
     0
 74
     0
 75
     1
 76
     1
 77
     3
 78
     8
170
     0
171
     2
172
     1
173
     1
174
     0
175
     0
176
   256
177
   256
178
     2
270
     2
271
     4
272
     4
273
     2
274
     2
340
1B886
275
     0
280
     0
281
     0
282
     0
283
     1
284
     8
285
     8
286
     8
287
     5
288
     0
  0
DIMSTYLE
105
1B900
330
1B86A
100
AcDbSymbolTableRecord
100
AcDbDimStyleTableRecord
  2
DTOS-2
 70
     0
  3

  4
"
  5
SMALL
  6

  7

 40
2.0
 41
1.0
 42
1.0
 43
7.0
 44
1.0
 45
0.0
 46
0.0
 47
0.1
 48
0.1
140
3.0
141
0.0
142
0.0
143
0.0393701
144
1.0
145
0.0
146
0.71
147
1.0
 71
     0
 72
     0
 73
     0
 74
     0
 75
     0
 76
     0
 77
     1
 78
     8
170
     0
171
     2
172
     1
173
     0
174
     1
175
     0
176
   256
177
   256
178
   256
270
     2
271
     4
272
     4
273
     2
274
     2
340
1B886
275
     0
280
     0
281
     0
282
     0
283
     1
284
     8
285
     8
286
     8
287
     5
288
     0
  0
DIMSTYLE
105
1B901
330
1B86A
100
AcDbSymbolTableRecord
100
AcDbDimStyleTableRecord
  2
STANDARD
 70
     0
  3

  4

  5

  6

  7

 40
1.0
 41
0.18
 42
0.0625
 43
0.38
 44
0.18
 45
0.0
 46
0.0
 47
0.0
 48
0.0
140
0.18
141
0.09
142
0.0
143
25.4
144
1.0
145
0.0
146
1.0
147
0.09
 71
     0
 72
     0
 73
     1
 74
     1
 75
     0
 76
     0
 77
     0
 78
     0
170
     0
171
     2
172
     0
173
     0
174
     0
175
     0
176
     0
177
     0
178
     0
270
     2
271
     4
272
     4
273
     2
274
     2
340
1B886
275
     0
280
     0
281
     0
282
     0
283
     1
284
     8
285
     8
286
     8
287
     5
288
     0
  0
DIMSTYLE
105
1B9A6
330
1B86A
100
AcDbSymbolTableRecord
100
AcDbDimStyleTableRecord
  2
AM_ANSI
 70
     0
  3

  4
mm
  5

  6

  7

 40
1.0
 41
0.1
 42
0.05
 43
0.5
 44
0.1
 45
0.0
 46
0.0
 47
0.1
 48
0.1
140
0.12
141
0.0
142
0.0
143
25.4
144
1.0
145
0.0
146
0.71
147
0.06
 71
     0
 72
     0
 73
     1
 74
     1
 75
     0
 76
     0
 77
     0
 78
     7
170
     0
171
     2
172
     0
173
     0
174
     0
175
     0
176
   256
177
   256
178
     2
270
     2
271
     4
272
     4
273
     2
274
     4
340
1B886
275
     0
280
     0
281
     0
282
     0
283
     1
284
     7
285
     0
286
     0
287
     3
288
     0
1001
ACAD_DSTYLE_DIMARC_LENGTH0
1070
   379
1070
     1
  0
DIMSTYLE
105
1B9A7
330
1B86A
100
AcDbSymbolTableRecord
100
AcDbDimStyleTableRecord
  2
AM_ANSI$3
 70
     0
  3

  4
mm
  5

  6

  7

 40
1.0
 41
0.1
 42
0.05
 43
0.5
 44
0.1
 45
0.0
 46
0.0
 47
0.1
 48
0.1
140
0.12
141
0.0
142
0.0
143
25.4
144
1.0
145
0.0
146
0.71
147
0.06
 71
     0
 72
     0
 73
     1
 74
     1
 75
     0
 76
     0
 77
     0
 78
     7
170
     0
171
     2
172
     0
173
     0
174
     0
175
     0
176
   256
177
   256
178
     2
270
     2
271
     4
272
     4
273
     2
274
     4
340
1B886
275
     0
280
     0
281
     0
282
     0
283
     1
284
     7
285
     0
286
     0
287
     0
288
     1
1001
ACAD_DSTYLE_DIMARC_LENGTH0
1070
   379
1070
     1
  0
DIMSTYLE
105
1B9A8
330
1B86A
100
AcDbSymbolTableRecord
100
AcDbDimStyleTableRecord
  2
AM_ANSI$4
 70
     0
  3

  4
mm
  5

  6

  7

 40
1.0
 41
0.1
 42
0.05
 43
0.5
 44
0.1
 45
0.0
 46
0.0
 47
0.1
 48
0.1
140
0.12
141
0.0
142
0.0
143
25.4
144
1.0
145
0.0
146
0.71
147
0.06
 71
     0
 72
     0
 73
     1
 74
     1
 75
     0
 76
     0
 77
     0
 78
     7
170
     0
171
     2
172
     0
173
     0
174
     0
175
     0
176
   256
177
   256
178
     2
270
     2
271
     4
272
     4
273
     2
274
     4
340
1B886
275
     0
280
     0
281
     0
282
     0
283
     1
284
     7
285
     0
286
     0
287
     0
288
     1
1001
ACAD_DSTYLE_DIMARC_LENGTH0
1070
   379
1070
     1
  0
DIMSTYLE
105
1B9A9
330
1B86A
100
AcDbSymbolTableRecord
100
AcDbDimStyleTableRecord
  2
AM_ANSI$7
 70
     0
  3

  4
mm
  5

  6

  7

 40
1.0
 41
0.1
 42
0.05
 43
0.5
 44
0.1
 45
0.0
 46
0.0
 47
0.1
 48
0.1
140
0.24
141
0.0
142
0.0
143
25.4
144
1.0
145
0.0
146
0.71
147
0.06
 71
     0
 72
     0
 73
     1
 74
     1
 75
     0
 76
     0
 77
     0
 78
     7
170
     0
171
     2
172
     0
173
     0
174
     0
175
     0
176
   256
177
   256
178
     2
270
     2
271
     4
272
     4
273
     2
274
     4
340
1B886
275
     0
280
     0
281
     0
282
     0
283
     1
284
     7
285
     0
286
     0
287
     3
288
     0
1001
ACAD_DSTYLE_DIMARC_LENGTH0
1070
   379
1070
     1
  0
DIMSTYLE
105
1B9AA
330
1B86A
100
AcDbSymbolTableRecord
100
AcDbDimStyleTableRecord
  2
AM_ANSI$SF
 70
     0
  3

  4
mm
  5

  6

  7

 40
1.0
 41
0.1
 42
0.05
 43
0.5
 44
0.1
 45
0.0
 46
0.0
 47
0.1
 48
0.1
140
0.12
141
0.0
142
0.0
143
25.4
144
1.0
145
0.0
146
0.71
147
0.06
 71
     0
 72
     0
 73
     1
 74
     1
 75
     1
 76
     1
 77
     0
 78
     7
170
     0
171
     2
172
     0
173
     0
174
     0
175
     0
176
   256
177
   256
178
     2
270
     2
271
     4
272
     4
273
     2
274
     4
340
1B886
275
     0
280
     0
281
     0
282
     0
283
     1
284
     7
285
     0
286
     0
287
     3
288
     0
1001
ACAD_DSTYLE_DIMARC_LENGTH0
1070
   379
1070
     1
  0
DIMSTYLE
105
1B9AB
330
1B86A
100
AcDbSymbolTableRecord
100
AcDbDimStyleTableRecord
  2
AM_ANSI$SH
 70
     0
  3

  4
mm
  5

  6
GENAXEH
  7

 40
1.0
 41
0.1
 42
0.05
 43
0.5
 44
0.1
 45
0.0
 46
0.0
 47
0.1
 48
0.1
140
0.12
141
0.0
142
0.0
143
25.4
144
1.0
145
0.0
146
0.71
147
0.06
 71
     0
 72
     0
 73
     1
 74
     1
 75
     1
 76
     1
 77
     0
 78
     7
170
     0
171
     2
172
     0
173
     1
174
     0
175
     0
176
   256
177
   256
178
     2
270
     2
271
     4
272
     4
273
     2
274
     4
340
1B886
275
     0
280
     0
281
     0
282
     0
283
     1
284
     7
285
     0
286
     0
287
     3
288
     0
1001
ACAD_DSTYLE_DIMARC_LENGTH0
1070
   379
1070
     1
  0
DIMSTYLE
105
1B9C6
330
1B86A
100
AcDbSymbolTableRecord
100
AcDbDimStyleTableRecord
  2
AM_ISO
 70
     0
  3

  4
"
  5

  6

  7

 40
1.0
 41
2.5
 42
1.0
 43
10.0
 44
1.0
 45
0.0
 46
0.0
 47
0.1
 48
0.1
140
3.5
141
0.0
142
0.0
143
0.0393701
144
1.0
145
0.0
146
0.71
147
1.5
 71
     0
 72
     0
 73
     0
 74
     0
 75
     0
 76
     0
 77
     1
 78
     8
170
     0
171
     2
172
     1
173
     0
174
     0
175
     0
176
   256
177
   256
178
     2
270
     2
271
     2
272
     3
273
     2
274
     4
340
1B886
275
     0
280
     0
281
     0
282
     0
283
     0
284
     8
285
     0
286
     0
287
     3
288
     0
1001
ACAD_DSTYLE_DIMARC_LENGTH0
1070
   379
1070
     1
  0
DIMSTYLE
105
1B9C7
330
1B86A
100
AcDbSymbolTableRecord
100
AcDbDimStyleTableRecord
  2
AM_ISO$3
 70
     0
  3

  4
"
  5

  6

  7

 40
1.0
 41
2.5
 42
1.0
 43
10.0
 44
1.0
 45
0.0
 46
0.0
 47
0.1
 48
0.1
140
3.5
141
0.0
142
0.0
143
0.0393701
144
1.0
145
0.0
146
0.71
147
1.5
 71
     0
 72
     0
 73
     0
 74
     1
 75
     0
 76
     0
 77
     1
 78
     8
170
     0
171
     2
172
     0
173
     0
174
     0
175
     0
176
   256
177
   256
178
     2
270
     2
271
     2
272
     3
273
     2
274
     4
340
1B886
275
     0
280
     0
281
     0
282
     0
283
     0
284
     8
285
     0
286
     0
287
     0
288
     1
1001
ACAD_DSTYLE_DIMARC_LENGTH0
1070
   379
1070
     1
  0
DIMSTYLE
105
1B9C8
330
1B86A
100
AcDbSymbolTableRecord
100
AcDbDimStyleTableRecord
  2
AM_ISO$4
 70
     0
  3

  4
"
  5

  6

  7

 40
1.0
 41
2.5
 42
1.0
 43
10.0
 44
1.0
 45
0.0
 46
0.0
 47
0.1
 48
0.1
140
3.5
141
0.0
142
0.0
143
0.0393701
144
1.0
145
0.0
146
0.71
147
1.5
 71
     0
 72
     0
 73
     0
 74
     1
 75
     0
 76
     0
 77
     1
 78
     8
170
     0
171
     2
172
     0
173
     0
174
     0
175
     0
176
   256
177
   256
178
     2
270
     2
271
     2
272
     3
273
     2
274
     4
340
1B886
275
     0
280
     0
281
     0
282
     0
283
     0
284
     8
285
     0
286
     0
287
     0
288
     1
1001
ACAD_DSTYLE_DIMARC_LENGTH0
1070
   379
1070
     1
  0
DIMSTYLE
105
1B9C9
330
1B86A
100
AcDbSymbolTableRecord
100
AcDbDimStyleTableRecord
  2
AM_ISO$6
 70
     0
  3

  4
"
  5

  6

  7

 40
1.0
 41
2.5
 42
1.0
 43
10.0
 44
1.0
 45
0.0
 46
0.0
 47
0.1
 48
0.1
140
3.5
141
0.0
142
0.0
143
0.0393701
144
1.0
145
0.0
146
0.71
147
1.5
 71
     0
 72
     0
 73
     0
 74
     0
 75
     0
 76
     0
 77
     0
 78
     8
170
     0
171
     2
172
     1
173
     0
174
     0
175
     0
176
   256
177
   256
178
     2
270
     2
271
     2
272
     3
273
     2
274
     4
340
1B886
275
     0
280
     0
281
     0
282
     0
283
     0
284
     8
285
     0
286
     0
287
     3
288
     0
1001
ACAD_DSTYLE_DIMARC_LENGTH0
1070
   379
1070
     1
  0
DIMSTYLE
105
1B9CA
330
1B86A
100
AcDbSymbolTableRecord
100
AcDbDimStyleTableRecord
  2
AM_ISO$7
 70
     0
  3

  4
"
  5

  6

  7

 40
1.0
 41
2.5
 42
1.0
 43
10.0
 44
1.0
 45
0.0
 46
0.0
 47
0.1
 48
0.1
140
5.0
141
0.0
142
0.0
143
0.0393701
144
1.0
145
0.0
146
0.71
147
1.5
 71
     0
 72
     0
 73
     0
 74
     0
 75
     0
 76
     0
 77
     1
 78
     8
170
     0
171
     2
172
     1
173
     0
174
     0
175
     0
176
   256
177
   256
178
     2
270
     2
271
     2
272
     3
273
     2
274
     4
340
1B886
275
     0
280
     0
281
     0
282
     0
283
     0
284
     8
285
     0
286
     0
287
     3
288
     0
1001
ACAD_DSTYLE_DIMARC_LENGTH0
1070
   379
1070
     1
  0
DIMSTYLE
105
1B9CB
330
1B86A
100
AcDbSymbolTableRecord
100
AcDbDimStyleTableRecord
  2
AM_ISO$SF
 70
     0
  3

  4
"
  5

  6

  7

 40
1.0
 41
2.5
 42
1.0
 43
10.0
 44
1.0
 45
0.0
 46
0.0
 47
0.1
 48
0.1
140
3.5
141
0.0
142
0.0
143
0.0393701
144
1.0
145
0.0
146
0.71
147
1.5
 71
     0
 72
     0
 73
     0
 74
     0
 75
     1
 76
     1
 77
     1
 78
     8
170
     0
171
     2
172
     1
173
     0
174
     0
175
     0
176
   256
177
   256
178
     2
270
     2
271
     2
272
     3
273
     2
274
     4
340
1B886
275
     0
280
     0
281
     0
282
     0
283
     0
284
     8
285
     0
286
     0
287
     3
288
     0
1001
ACAD_DSTYLE_DIMARC_LENGTH0
1070
   379
1070
     1
  0
DIMSTYLE
105
1B9CC
330
1B86A
100
AcDbSymbolTableRecord
100
AcDbDimStyleTableRecord
  2
AM_ISO$SH
 70
     0
  3

  4
"
  5

  6
GENAXEH
  7

 40
1.0
 41
2.5
 42
1.0
 43
10.0
 44
1.0
 45
0.0
 46
0.0
 47
0.1
 48
0.1
140
3.5
141
0.0
142
0.0
143
0.0393701
144
2.0
145
0.0
146
0.71
147
1.5
 71
     0
 72
     0
 73
     0
 74
     0
 75
     1
 76
     1
 77
     1
 78
     8
170
     0
171
     2
172
     1
173
     1
174
     0
175
     0
176
   256
177
   256
178
     2
270
     2
271
     2
272
     3
273
     2
274
     4
340
1B886
275
     0
280
     0
281
     0
282
     0
283
     0
284
     8
285
     0
286
     0
287
     3
288
     0
1001
ACAD_DSTYLE_DIMARC_LENGTH0
1070
   379
1070
     1
  0
ENDTAB
  0
TABLE
  2
BLOCK_RECORD
  5
1B861
330
0
100
AcDbSymbolTable
 70
     4
  0
BLOCK_RECORD
  5
1B896
102
{ACAD_XDICTIONARY
360
1B9BD
102
}
330
1B861
100
AcDbSymbolTableRecord
100
AcDbBlockTableRecord
  2
*MODEL_SPACE
  0
BLOCK_RECORD
  5
1B892
102
{ACAD_XDICTIONARY
360
1CC70
102
}
330
1B861
100
AcDbSymbolTableRecord
100
AcDbBlockTableRecord
  2
*PAPER_SPACE
  0
BLOCK_RECORD
  5
1B89A
330
1B861
100
AcDbSymbolTableRecord
100
AcDbBlockTableRecord
  2
_OPEN30
  0
BLOCK_RECORD
  5
1B89B
330
1B861
100
AcDbSymbolTableRecord
100
AcDbBlockTableRecord
  2
GENAXEH
  0
BLOCK_RECORD
  5
1B89C
330
1B861
100
AcDbSymbolTableRecord
100
AcDbBlockTableRecord
  2
_OPEN
  0
BLOCK_RECORD
  5
1B89D
330
1B861
100
AcDbSymbolTableRecord
100
AcDbBlockTableRecord
  2
_SMALL
  0
ENDTAB
  0
ENDSEC
  0
SECTION
  2
BLOCKS
  0
BLOCK
  5
1B919
330
1B896
100
AcDbEntity
  8
0
100
AcDbBlockBegin
  2
*MODEL_SPACE
 70
     0
 10
0.0
 20
0.0
 30
0.0
  3
*MODEL_SPACE
  1

  0
ENDBLK
  5
1B91A
330
1B896
100
AcDbEntity
  8
0
100
AcDbBlockEnd
  0
BLOCK
  5
1B917
330
1B892
100
AcDbEntity
 67
     1
  8
0
100
AcDbBlockBegin
  2
*PAPER_SPACE
 70
     0
 10
0.0
 20
0.0
 30
0.0
  3
*PAPER_SPACE
  1

  0
ENDBLK
  5
1B918
330
1B892
100
AcDbEntity
 67
     1
  8
0
100
AcDbBlockEnd
  0
BLOCK
  5
1B4CE
330
1B89A
100
AcDbEntity
  8
0
100
AcDbBlockBegin
  2
_OPEN30
 70
     0
 10
0.0
 20
0.0
 30
0.0
  3
_OPEN30
  1

  0
LINE
  5
1B4D0
330
1B89A
100
AcDbEntity
  8
0
  6
BYBLOCK
 62
     0
100
AcDbLine
 10
-1.0
 20
0.26794919
 30
0.0
 11
0.0
 21
0.0
 31
0.0
  0
LINE
  5
1B4D1
330
1B89A
100
AcDbEntity
  8
0
  6
BYBLOCK
 62
     0
100
AcDbLine
 10
0.0
 20
0.0
 30
0.0
 11
-1.0
 21
-0.26794919
 31
0.0
  0
LINE
  5
1B4D2
330
1B89A
100
AcDbEntity
  8
0
  6
BYBLOCK
 62
     0
100
AcDbLine
 10
0.0
 20
0.0
 30
0.0
 11
-1.0
 21
0.0
 31
0.0
  0
ENDBLK
  5
1B4D3
330
1B89A
100
AcDbEntity
  8
0
100
AcDbBlockEnd
  0
BLOCK
  5
1B4D4
330
1B89B
100
AcDbEntity
  8
0
100
AcDbBlockBegin
  2
GENAXEH
 70
     0
 10
0.0
 20
0.0
 30
0.0
  3
GENAXEH
  1

  0
LINE
  5
1B4D6
330
1B89B
100
AcDbEntity
  8
0
100
AcDbLine
 10
-1.0
 20
0.0
 30
0.0
 11
1.0
 21
0.0
 31
0.0
  0
ENDBLK
  5
1B4D7
330
1B89B
100
AcDbEntity
  8
0
100
AcDbBlockEnd
  0
BLOCK
  5
1B4D8
330
1B89C
100
AcDbEntity
  8
0
100
AcDbBlockBegin
  2
_OPEN
 70
     0
 10
0.0
 20
0.0
 30
0.0
  3
_OPEN
  1

  0
LINE
  5
1B4DA
330
1B89C
100
AcDbEntity
  8
0
  6
BYBLOCK
 62
     0
100
AcDbLine
 10
-1.0
 20
0.1666666666666667
 30
0.0
 11
0.0
 21
0.0
 31
0.0
  0
LINE
  5
1B4DB
330
1B89C
100
AcDbEntity
  8
0
  6
BYBLOCK
 62
     0
100
AcDbLine
 10
-1.0
 20
-0.1666666666666667
 30
0.0
 11
0.0
 21
0.0
 31
0.0
  0
LINE
  5
1B4DC
330
1B89C
100
AcDbEntity
  8
0
  6
BYBLOCK
 62
     0
100
AcDbLine
 10
0.0
 20
0.0
 30
0.0
 11
-1.0
 21
0.0
 31
0.0
  0
ENDBLK
  5
1B4DD
330
1B89C
100
AcDbEntity
  8
0
100
AcDbBlockEnd
  0
BLOCK
  5
1B4DE
330
1B89D
100
AcDbEntity
  8
AM_0
100
AcDbBlockBegin
  2
_SMALL
 70
     0
 10
0.0
 20
0.0
 30
0.0
  3
_SMALL
  1

  0
CIRCLE
  5
1B4E0
330
1B89D
100
AcDbEntity
  8
0
  6
BYBLOCK
 62
     0
100
AcDbCircle
 10
0.0
 20
0.0
 30
0.0
 40
0.25
  0
ENDBLK
  5
1B4E1
330
1B89D
100
AcDbEntity
  8
AM_0
100
AcDbBlockEnd
  0
ENDSEC
  0
SECTION
  2
ENTITIES
  0
TEXT
  5
1B5DE
330
1B896
100
AcDbEntity
  8
WK
100
AcDbText
 10
4966.271788615596
 20
513.3421640467378
 30
0.0
 40
7.0
  1
大栄建材株式会社
 41
0.9
 72
     2
 11
5025.071788615596
 21
513.3421640467378
 31
0.0
100
AcDbText
  0
TEXT
  5
1B5DF
330
1B896
100
AcDbEntity
  8
WK
100
AcDbText
 10
4753.702280221578
 20
-36.2578359532622
 30
0.0
 40
3.2
  1
図名
 41
0.8299999999999998
100
AcDbText
  0
TEXT
  5
1B5E0
330
1B896
100
AcDbEntity
  8
WK
100
AcDbText
 10
4834.899146888245
 20
-48.15783595326207
 30
0.0
 40
4.0
  1
基準図
 41
0.8
100
AcDbText
  0
TEXT
  5
1B5E1
330
1B896
100
AcDbEntity
  8
WK
100
AcDbText
 10
4847.828146888245
 20
-36.2578359532622
 30
0.0
 40
3.2
  1
尺度
 41
0.8299999999999998
100
AcDbText
  0
TEXT
  5
1B5E2
330
1B896
100
AcDbEntity
  8
WK
100
AcDbText
 10
4867.952719393958
 20
-49.2578359532622
 30
0.0
 40
3.2
  1
廃止
 41
0.8299999999999998
100
AcDbText
  0
TEXT
  5
1B5E3
330
1B896
100
AcDbEntity
  8
WK
100
AcDbText
 10
4867.952719393958
 20
-43.2578359532622
 30
0.0
 40
3.2
  1
制定
 41
0.8299999999999998
100
AcDbText
  0
TEXT
  5
1B5E4
330
1B896
100
AcDbEntity
  8
WK
100
AcDbText
 10
4867.952719393958
 20
-37.2578359532622
 30
0.0
 40
3.2
  1
作成
 41
0.8299999999999998
100
AcDbText
  0
TEXT
  5
1B5E5
330
1B896
100
AcDbEntity
  8
WK
100
AcDbText
 10
4909.328146888245
 20
-36.2578359532622
 30
0.0
 40
3.2
  1
作図
 41
0.8299999999999998
100
AcDbText
  0
TEXT
  5
1B5E6
330
1B896
100
AcDbEntity
  8
WK
100
AcDbText
 10
4929.328146888245
 20
-36.2578359532622
 30
0.0
 40
3.2
  1
検図
 41
0.8299999999999998
100
AcDbText
  0
TEXT
  5
1B5E7
330
1B896
100
AcDbEntity
  8
WK
100
AcDbText
 10
4949.202280221578
 20
-36.2578359532622
 30
0.0
 40
3.2
  1
図番
 41
0.8299999999999998
100
AcDbText
  0
TEXT
  5
1B5E8
330
1B896
100
AcDbEntity
  8
WK
100
AcDbText
 10
4853.926956412054
 20
-45.75783630931378
 30
0.0
 40
3.2
  1
1:1
 41
0.8299999999999998
 72
     4
 11
4856.899146888245
 21
-44.15783630931378
 31
0.0
100
AcDbText
  0
CIRCLE
  5
1B5E9
330
1B896
100
AcDbEntity
  8
WK
100
AcDbCircle
 10
5019.208621907555
 20
-41.15783595326207
 30
0.0
 40
6.0
  0
LINE
  5
1B5EA
330
1B896
100
AcDbEntity
  8
WK
100
AcDbLine
 10
5013.208621907555
 20
-41.15783595326207
 30
0.0
 11
5025.208621907555
 21
-41.15783595326207
 31
0.0
  0
LINE
  5
1B5EB
330
1B896
100
AcDbEntity
  8
WK
100
AcDbLine
 10
4866.899146888245
 20
-38.15783595326207
 30
0.0
 11
4906.899146888245
 21
-38.15783595326207
 31
0.0
  0
LINE
  5
1B5EC
330
1B896
100
AcDbEntity
  8
WK
100
AcDbLine
 10
4866.899146888245
 20
-44.15783595326207
 30
0.0
 11
4906.899146888245
 21
-44.15783595326207
 31
0.0
  0
LINE
  5
1B5ED
330
1B896
100
AcDbEntity
  8
WK
100
AcDbLine
 10
4760.899146888244
 20
-40.15783595326207
 30
0.0
 11
4833.899146888246
 21
-40.15783595326207
 31
0.0
  0
LINE
  5
1B5EE
330
1B896
100
AcDbEntity
  8
WK
100
AcDbLine
 10
4751.899146888245
 20
-32.15783595326207
 30
0.0
 11
5026.899146888245
 21
-32.15783595326207
 31
0.0
  0
LINE
  5
1B5EF
330
1B896
100
AcDbEntity
  8
WK
100
AcDbLine
 10
4846.899146888245
 20
-32.15783595326207
 30
0.0
 11
4846.899146888245
 21
-50.15783595326207
 31
0.0
  0
LINE
  5
1B5F0
330
1B896
100
AcDbEntity
  8
WK
100
AcDbLine
 10
4866.899146888245
 20
-32.15783595326207
 30
0.0
 11
4866.899146888245
 21
-50.15783595326207
 31
0.0
  0
LINE
  5
1B5F1
330
1B896
100
AcDbEntity
  8
WK
100
AcDbLine
 10
4926.899146888246
 20
-32.15783595326207
 30
0.0
 11
4926.899146888246
 21
-50.15783595326207
 31
0.0
  0
LINE
  5
1B5F2
330
1B896
100
AcDbEntity
  8
WK
100
AcDbLine
 10
4906.899146888245
 20
-32.15783595326207
 30
0.0
 11
4906.899146888245
 21
-50.15783595326207
 31
0.0
  0
LINE
  5
1B5F3
330
1B896
100
AcDbEntity
  8
WK
100
AcDbLine
 10
4751.899146888245
 20
-32.15783595326207
 30
0.0
 11
4751.899146888245
 21
-50.15783595326207
 31
0.0
  0
LINE
  5
1B5F4
330
1B896
100
AcDbEntity
  8
WK
100
AcDbLine
 10
4946.899146888245
 20
-32.15783595326207
 30
0.0
 11
4946.899146888245
 21
-50.15783595326207
 31
0.0
  0
TEXT
  5
1B5F5
330
1B896
100
AcDbEntity
  8
WK
100
AcDbText
 10
4231.899146888244
 20
-50.15783595326207
 30
0.0
 40
3.2
  1
A1
 50
90.0
 41
0.8299999999999998
100
AcDbText
  0
LINE
  5
1B5F6
330
1B896
100
AcDbEntity
  8
WK
100
AcDbLine
 10
5026.899146888245
 20
511.3421640467378
 30
0.0
 11
5026.899146888245
 21
-50.15783595326207
 31
0.0
  0
LINE
  5
1B5F7
330
1B896
100
AcDbEntity
  8
WK
100
AcDbLine
 10
4232.899146888245
 20
511.3421640467378
 30
0.0
 11
4232.899146888245
 21
-50.15783595326207
 31
0.0
  0
LINE
  5
1B5F8
330
1B896
100
AcDbEntity
  8
WK
100
AcDbLine
 10
4232.899146888245
 20
511.3421640467378
 30
0.0
 11
5026.899146888245
 21
511.3421640467378
 31
0.0
  0
LINE
  5
1B5F9
330
1B896
100
AcDbEntity
  8
WK
100
AcDbLine
 10
4232.899146888245
 20
-50.15783595326207
 30
0.0
 11
5026.899146888245
 21
-50.15783595326207
 31
0.0
  0
LINE
  5
1C3A9
330
1B896
100
AcDbEntity
  8
OS
 62
     2
100
AcDbLine
 10
4603.694050562173
 20
225.7717972784319
 30
0.0
 11
4614.388996675054
 21
215.0768511655509
 31
0.0
  0
TEXT
  5
1C3AA
330
1B896
100
AcDbEntity
  8
AM_5
100
AcDbText
 10
4302.042457129148
 20
366.8207974512986
 30
0.0
 40
6.0
  1
CH
 41
0.9
100
AcDbText
  0
LINE
  5
1C3AB
330
1B896
100
AcDbEntity
  8
AM_5
100
AcDbLine
 10
4307.567519860675
 20
382.0536406468518
 30
0.0
 11
4312.214274746751
 21
374.0052250938519
 31
0.0
  0
LINE
  5
1C3AC
330
1B896
100
AcDbEntity
  8
AM_5
100
AcDbLine
 10
4302.9207649746
 20
374.0052250938519
 30
0.0
 11
4312.214274746751
 21
374.0052250938519
 31
0.0
  0
LINE
  5
1C3AD
330
1B896
100
AcDbEntity
  8
AM_5
100
AcDbLine
 10
4307.567519860675
 20
382.0536406468518
 30
0.0
 11
4302.9207649746
 21
374.0052250938519
 31
0.0
  0
LINE
  5
1C3AE
330
1B896
100
AcDbEntity
  8
OS
 62
     2
100
AcDbLine
 10
4625.219991138709
 20
203.7458567018962
 30
0.0
 11
4640.253164797043
 21
188.7126830435638
 31
0.0
  0
LINE
  5
1C3AF
330
1B896
100
AcDbEntity
  8
OS
 62
     2
100
AcDbLine
 10
5001.753183413942
 20
234.2126830435638
 30
0.0
 11
4956.753183413943
 21
189.2126830435638
 31
0.0
  0
LINE
  5
1C3B0
330
1B896
100
AcDbEntity
  8
OS
 62
     2
100
AcDbLine
 10
4956.753183413943
 20
294.2126830435638
 30
0.0
 11
5001.753183413942
 21
249.2126830435638
 31
0.0
  0
LINE
  5
1C3B1
330
1B896
100
AcDbEntity
  8
OS
 62
     2
100
AcDbLine
 10
4640.253164797043
 20
294.2126830435638
 30
0.0
 11
4613.598063560808
 21
267.5575818073308
 31
0.0
  0
LINE
  5
1C3B2
330
1B896
100
AcDbEntity
  8
OS
 62
     2
100
AcDbLine
 10
4329.553589289727
 20
394.5536406468518
 30
0.0
 11
4395.23359493791
 21
436.2358802381205
 31
0.0
  0
LINE
  5
1C3B3
330
1B896
100
AcDbEntity
  8
OS
 62
     2
100
AcDbLine
 10
4347.053589289727
 20
382.0536406468518
 30
0.0
 11
4347.053589289727
 21
93.5536406468517
 31
0.0
  0
TEXT
  5
1C3B4
330
1B896
100
AcDbEntity
  8
AM_5
100
AcDbText
 10
4302.912919739465
 20
102.5989643600001
 30
0.0
 40
6.0
  1
FL
 41
0.9
100
AcDbText
  0
LINE
  5
1C3B5
330
1B896
100
AcDbEntity
  8
AM_5
100
AcDbLine
 10
4307.567519860675
 20
93.55364064685181
 30
0.0
 11
4312.214274746751
 21
101.6020561998518
 31
0.0
  0
LINE
  5
1C3B6
330
1B896
100
AcDbEntity
  8
AM_5
100
AcDbLine
 10
4302.9207649746
 20
101.6020561998518
 30
0.0
 11
4312.214274746751
 21
101.6020561998518
 31
0.0
  0
LINE
  5
1C3B7
330
1B896
100
AcDbEntity
  8
AM_5
100
AcDbLine
 10
4307.567519860675
 20
93.55364064685181
 30
0.0
 11
4302.9207649746
 21
101.6020561998518
 31
0.0
  0
LINE
  5
1C3B8
330
1B896
100
AcDbEntity
  8
OS
 62
     2
100
AcDbLine
 10
4317.053589289727
 20
93.55364064685181
 30
0.0
 11
4317.053589289727
 21
436.2358802381205
 31
0.0
  0
LINE
  5
1C3B9
330
1B896
100
AcDbEntity
  8
OS
 62
     2
100
AcDbLine
 10
4530.053589289727
 20
83.9536406468518
 30
0.0
 11
4283.685386859136
 21
83.9536406468518
 31
0.0
  0
LINE
  5
1C3BA
330
1B896
100
AcDbEntity
  8
OS
 62
     2
100
AcDbLine
 10
4530.053589289727
 20
86.35364064685189
 30
0.0
 11
4283.685386859136
 21
86.35364064685189
 31
0.0
  0
LINE
  5
1C3BB
330
1B896
100
AcDbEntity
  8
OS
 62
     2
100
AcDbLine
 10
4530.053589289727
 20
88.75364064685175
 30
0.0
 11
4283.685386859136
 21
88.75364064685175
 31
0.0
  0
LINE
  5
1C3BC
330
1B896
100
AcDbEntity
  8
OS
 62
     2
100
AcDbLine
 10
4530.053589289727
 20
91.15364064685184
 30
0.0
 11
4283.685386859136
 21
91.15364064685184
 31
0.0
  0
LINE
  5
1C3BD
330
1B896
100
AcDbEntity
  8
OS
 62
     2
100
AcDbLine
 10
4530.053589289727
 20
93.55364064685181
 30
0.0
 11
4283.685386859136
 21
93.55364064685181
 31
0.0
  0
LINE
  5
1C3BE
330
1B896
100
AcDbEntity
  8
OS
 62
     2
100
AcDbLine
 10
4530.053589289727
 20
81.55364064685182
 30
0.0
 11
4283.685386859136
 21
81.55364064685182
 31
0.0
  0
LINE
  5
1C3BF
330
1B896
100
AcDbEntity
  8
OS
  6
DASHED1
 62
     2
100
AcDbLine
 10
4447.053589289728
 20
382.0536406468518
 30
0.0
 11
4531.923479154879
 21
382.0536406468518
 31
0.0
  0
LINE
  5
1C3C0
330
1B896
100
AcDbEntity
  8
OS
  6
DASHED1
 62
     2
100
AcDbLine
 10
4317.053589289727
 20
382.0536406468518
 30
0.0
 11
4283.685386859136
 21
382.0536406468518
 31
0.0
  0
LINE
  5
1C3C1
330
1B896
100
AcDbEntity
  8
OS
  6
DASHED1
 62
     2
100
AcDbLine
 10
4447.053589289728
 20
394.5536406468518
 30
0.0
 11
4531.923479154879
 21
394.5536406468518
 31
0.0
  0
LINE
  5
1C3C2
330
1B896
100
AcDbEntity
  8
OS
  6
DASHED1
 62
     2
100
AcDbLine
 10
4317.053589289727
 20
394.5536406468518
 30
0.0
 11
4283.685386859136
 21
394.5536406468518
 31
0.0
  0
LINE
  5
1C3C3
330
1B896
100
AcDbEntity
  8
OS
 62
     2
100
AcDbLine
 10
4422.053589289728
 20
369.0536406468518
 30
0.0
 11
4422.053589289728
 21
372.0536406468518
 31
0.0
  0
LINE
  5
1C3C4
330
1B896
100
AcDbEntity
  8
________
100
AcDbLine
 10
4983.558881845367
 20
244.7126830435639
 30
0.0
 11
4923.306038722031
 21
244.7126830435639
 31
0.0
  0
LINE
  5
1C3C5
330
1B896
100
AcDbEntity
  8
________
100
AcDbLine
 10
4614.098063560809
 20
244.7126830435639
 30
0.0
 11
4673.700309488952
 21
244.7126830435639
 31
0.0
  0
LINE
  5
1C3C6
330
1B896
100
AcDbEntity
  8
OS
 62
     2
100
AcDbLine
 10
4640.253164797043
 20
189.2126830435638
 30
0.0
 11
4603.694050562173
 21
189.2126830435638
 31
0.0
  0
LINE
  5
1C3C7
330
1B896
100
AcDbEntity
  8
OS
 62
     2
100
AcDbLine
 10
4370.053589289727
 20
382.0536406468518
 30
0.0
 11
4370.053589289727
 21
93.5536406468517
 31
0.0
  0
LINE
  5
1C3C8
330
1B896
100
AcDbEntity
  8
OS
 62
     2
100
AcDbLine
 10
4434.553589289728
 20
394.5536406468518
 30
0.0
 11
4434.553589289728
 21
436.2358802381206
 31
0.0
  0
LINE
  5
1C3C9
330
1B896
100
AcDbEntity
  8
OS
 62
     2
100
AcDbLine
 10
4329.553589289727
 20
394.5536406468518
 30
0.0
 11
4329.553589289727
 21
436.2358802381205
 31
0.0
  0
LINE
  5
1C3CA
330
1B896
100
AcDbEntity
  8
OS
 62
     2
100
AcDbLine
 10
4447.053589289728
 20
394.5536406468518
 30
0.0
 11
4317.053589289727
 21
394.5536406468518
 31
0.0
  0
LINE
  5
1C3CB
330
1B896
100
AcDbEntity
  8
OS
 62
     2
100
AcDbLine
 10
4447.053589289728
 20
382.0536406468518
 30
0.0
 11
4317.053589289727
 21
382.0536406468518
 31
0.0
  0
LINE
  5
1C3CC
330
1B896
100
AcDbEntity
  8
AM_0
100
AcDbLine
 10
4431.053589289727
 20
369.0536406468518
 30
0.0
 11
4391.053589289728
 21
369.0536406468518
 31
0.0
  0
LINE
  5
1C3CD
330
1B896
100
AcDbEntity
  8
AM_2
100
AcDbLine
 10
4452.553589289737
 20
372.5536406337518
 30
0.0
 11
4452.553589289737
 21
369.5536406468518
 31
0.0
  0
LINE
  5
1C3CE
330
1B896
100
AcDbEntity
  8
AM_2
100
AcDbLine
 10
4444.553589289736
 20
372.5536406337518
 30
0.0
 11
4444.553589289736
 21
369.5536406468518
 31
0.0
  0
LINE
  5
1C3CF
330
1B896
100
AcDbEntity
  8
AM_2
100
AcDbLine
 10
4428.753587740028
 20
374.0536406468518
 30
0.0
 11
4428.753587740028
 21
372.0536406468518
 31
0.0
  0
LINE
  5
1C3D0
330
1B896
100
AcDbEntity
  8
AM_2
100
AcDbLine
 10
4428.753587740028
 20
376.0536406468518
 30
0.0
 11
4428.753587740028
 21
379.0536407418519
 31
0.0
  0
LINE
  5
1C3D1
330
1B896
100
AcDbEntity
  8
AM_2
100
AcDbLine
 10
4392.753587740028
 20
376.0536407418519
 30
0.0
 11
4392.753587740028
 21
379.0536407418519
 31
0.0
  0
LINE
  5
1C3D2
330
1B896
100
AcDbEntity
  8
AM_2
100
AcDbLine
 10
4395.772804086828
 20
376.0536407418519
 30
0.0
 11
4392.753587740028
 21
376.0536407418519
 31
0.0
  0
LINE
  5
1C3D3
330
1B896
100
AcDbEntity
  8
AM_2
100
AcDbLine
 10
4428.753587740028
 20
379.0536407418519
 30
0.0
 11
4392.753587740028
 21
379.0536407418519
 31
0.0
  0
LINE
  5
1C3D4
330
1B896
100
AcDbEntity
  8
AM_2
100
AcDbLine
 10
4431.817096238728
 20
376.0536407418519
 30
0.0
 11
4395.772804086828
 21
376.0536407418519
 31
0.0
  0
LINE
  5
1C3D5
330
1B896
100
AcDbEntity
  8
AM_2
100
AcDbLine
 10
4395.772804086828
 20
374.0536406468518
 30
0.0
 11
4395.772804086828
 21
376.0536407418519
 31
0.0
  0
LINE
  5
1C3D6
330
1B896
100
AcDbEntity
  8
AM_2
100
AcDbLine
 10
4431.753587740028
 20
374.0536406468518
 30
0.0
 11
4395.772804086828
 21
374.0536406468518
 31
0.0
  0
LINE
  5
1C3D7
330
1B896
100
AcDbEntity
  8
AM_2
100
AcDbLine
 10
4432.053587740028
 20
381.5536409447518
 30
0.0
 11
4457.053588112527
 21
381.5536409447518
 31
0.0
  0
LINE
  5
1C3D8
330
1B896
100
AcDbEntity
  8
AM_2
100
AcDbLine
 10
4432.053587740028
 20
381.5536409447518
 30
0.0
 11
4432.053587740028
 21
376.0536407417518
 31
0.0
  0
LINE
  5
1C3D9
330
1B896
100
AcDbEntity
  8
AM_2
100
AcDbLine
 10
4459.053588499928
 20
381.0536407808518
 30
0.0
 11
4432.053587740028
 21
381.0536407808518
 31
0.0
  0
LINE
  5
1C3DA
330
1B896
100
AcDbEntity
  8
AM_2
100
AcDbLine
 10
4433.753587740031
 20
374.5536407287518
 30
0.0
 11
4457.053589289727
 21
374.5536407287518
 31
0.0
  0
LINE
  5
1C3DB
330
1B896
100
AcDbEntity
  8
AM_2
100
AcDbLine
 10
4457.053589289727
 20
372.5536406337518
 30
0.0
 11
4433.942199265327
 21
372.5536406337518
 31
0.0
  0
LINE
  5
1C3DC
330
1B896
100
AcDbEntity
  8
AM_2
100
AcDbLine
 10
4429.302521349638
 20
376.0536407418519
 30
0.0
 11
4427.302521349639
 21
376.0536407418519
 31
0.0
  0
LINE
  5
1C3DD
330
1B896
100
AcDbEntity
  8
AM_2
100
AcDbLine
 10
4459.053588499928
 20
381.0536409447518
 30
0.0
 11
4459.053588499928
 21
374.5536407287518
 31
0.0
  0
ARC
  5
1C3DE
330
1B896
100
AcDbEntity
  8
AM_2
100
AcDbCircle
 10
4458.553588499928
 20
381.0536409447518
 30
0.0
 40
0.5
100
AcDbArc
 50
0.0
 51
90.0
  0
LINE
  5
1C3DF
330
1B896
100
AcDbEntity
  8
AM_2
100
AcDbLine
 10
4458.553588499928
 20
381.5536409447518
 30
0.0
 11
4457.053588112527
 21
381.5536409447518
 31
0.0
  0
LINE
  5
1C3E0
330
1B896
100
AcDbEntity
  8
AM_2
100
AcDbLine
 10
4459.053588499928
 20
374.5536407287518
 30
0.0
 11
4458.053588276427
 21
374.5536407287518
 31
0.0
  0
LINE
  5
1C3E1
330
1B896
100
AcDbEntity
  8
AM_2
100
AcDbLine
 10
4453.475820706928
 20
374.5536407287518
 30
0.0
 11
4458.053588276427
 21
374.5536407287518
 31
0.0
  0
ARC
  5
1C3E2
330
1B896
100
AcDbEntity
  8
AM_2
100
AcDbCircle
 10
4431.813417521327
 20
374.0681136195518
 30
0.0
 40
2.0
100
AcDbArc
 50
14.0497051842871
 51
83.102963565695
  0
ARC
  5
1C3E3
330
1B896
100
AcDbEntity
  8
AM_2
100
AcDbCircle
 10
4457.053588499928
 20
380.5536407287518
 30
0.0
 40
1.0
100
AcDbArc
 50
0.0
 51
89.99999999989578
  0
LINE
  5
1C3E4
330
1B896
100
AcDbEntity
  8
AM_2
100
AcDbLine
 10
4458.053588276427
 20
374.5536407287518
 30
0.0
 11
4458.053588276427
 21
380.5536407808519
 31
0.0
  0
LINE
  5
1C3E5
330
1B896
100
AcDbEntity
  8
AM_2
100
AcDbLine
 10
4457.053589289727
 20
374.5536407287518
 30
0.0
 11
4457.053589289727
 21
372.5536406337518
 31
0.0
  0
LINE
  5
1C3E6
330
1B896
100
AcDbEntity
  8
AM_2
100
AcDbLine
 10
4404.753588652027
 20
374.0536406468518
 30
0.0
 11
4404.753588652027
 21
376.0536407418519
 31
0.0
  0
LINE
  5
1C3E7
330
1B896
100
AcDbEntity
  8
AM_2
100
AcDbLine
 10
4415.753588592425
 20
376.0536407418519
 30
0.0
 11
4415.753588592425
 21
374.0536406468518
 31
0.0
  0
LINE
  5
1C3E8
330
1B896
100
AcDbEntity
  8
AM_2
100
AcDbLine
 10
4433.942199265327
 20
372.5536406337518
 30
0.0
 11
4433.690079068528
 21
372.5536406337518
 31
0.0
  0
LINE
  5
1C3E9
330
1B896
100
AcDbEntity
  8
AM_2
100
AcDbLine
 10
4416.753586893628
 20
374.0536406468518
 30
0.0
 11
4431.753587489727
 21
374.0536406468518
 31
0.0
  0
ARC
  5
1C3EA
330
1B896
100
AcDbEntity
  8
AM_2
100
AcDbCircle
 10
4431.817096066928
 20
374.0536406337518
 30
0.0
 40
2.0
100
AcDbArc
 50
14.47751218591032
 51
90.0
  0
ARC
  5
1C3EB
330
1B896
100
AcDbEntity
  8
AM_2
100
AcDbCircle
 10
4433.690079413127
 20
374.5536406337518
 30
0.0
 40
2.0
100
AcDbArc
 50
194.4775121858977
 51
270.0
  0
LINE
  5
1C3EC
330
1B896
100
AcDbEntity
  8
AM_2
100
AcDbLine
 10
4392.753587740028
 20
374.0536406468518
 30
0.0
 11
4422.753587740028
 21
374.0536406468518
 31
0.0
  0
LINE
  5
1C3ED
330
1B896
100
AcDbEntity
  8
AM_2
100
AcDbLine
 10
4392.753587740028
 20
374.0536406468518
 30
0.0
 11
4392.753587740028
 21
372.0536406468518
 31
0.0
  0
LINE
  5
1C3EE
330
1B896
100
AcDbEntity
  8
AM_2
100
AcDbLine
 10
4392.753587740028
 20
372.0536406468518
 30
0.0
 11
4428.753587740028
 21
372.0536406468518
 31
0.0
  0
LINE
  5
1C3EF
330
1B896
100
AcDbEntity
  8
AM_0
100
AcDbLine
 10
4398.053589289737
 20
369.0536406468518
 30
0.0
 11
4431.187563885941
 21
369.0536406468518
 31
0.0
  0
LINE
  5
1C3F0
330
1B896
100
AcDbEntity
  8
AM_2
100
AcDbLine
 10
4431.053589289727
 20
369.0536406468518
 30
0.0
 11
4431.053589289727
 21
337.6111525084418
 31
0.0
  0
LINE
  5
1C3F1
330
1B896
100
AcDbEntity
  8
AM_2
100
AcDbLine
 10
4458.553589289556
 20
341.8473244568319
 30
0.0
 11
4458.553589289556
 21
369.5536406468518
 31
0.0
  0
ARC
  5
1C3F2
330
1B896
100
AcDbEntity
  8
AM_2
100
AcDbCircle
 10
4456.553589289557
 20
341.8473244568319
 30
0.0
 40
2.0
100
AcDbArc
 50
276.2258290645188
 51
0.0
  0
LINE
  5
1C3F3
330
1B896
100
AcDbEntity
  8
AM_2
100
AcDbLine
 10
4458.553589289556
 20
369.5536406468518
 30
0.0
 11
4432.053589289727
 21
369.5536406468518
 31
0.0
  0
ARC
  5
1C3F4
330
1B896
100
AcDbEntity
  8
AM_2
100
AcDbCircle
 10
4431.553589289728
 20
337.6111525084158
 30
0.0
 40
0.5
100
AcDbArc
 50
180.0
 51
276.2258290647807
  0
LINE
  5
1C3F5
330
1B896
100
AcDbEntity
  8
AM_2
100
AcDbLine
 10
4431.607813044816
 20
337.1141014201319
 30
0.0
 11
4456.770484309907
 21
339.8591201036119
 31
0.0
  0
ARC
  5
1C3F6
330
1B896
100
AcDbEntity
  8
AM_2
100
AcDbCircle
 10
4432.053589289727
 20
368.5536406468518
 30
0.0
 40
1.0
100
AcDbArc
 50
89.99999999984366
 51
180.0
  0
LINE
  5
1C3F7
330
1B896
100
AcDbEntity
  8
AM_2
100
AcDbLine
 10
4444.753589289717
 20
102.5536406468518
 30
0.0
 11
4444.753589289717
 21
96.55364067295181
 31
0.0
  0
LINE
  5
1C3F8
330
1B896
100
AcDbEntity
  8
AM_2
100
AcDbLine
 10
4452.353589289717
 20
102.5536406468518
 30
0.0
 11
4452.353589289717
 21
96.55364067295181
 31
0.0
  0
LINE
  5
1C3F9
330
1B896
100
AcDbEntity
  8
AM_2
100
AcDbLine
 10
4435.053589289719
 20
96.55364067295181
 30
0.0
 11
4439.114092083318
 21
96.55364067295181
 31
0.0
  0
ARC
  5
1C3FA
330
1B896
100
AcDbEntity
  8
AM_2
100
AcDbCircle
 10
4435.053589289719
 20
95.55364067295181
 30
0.0
 40
1.0
100
AcDbArc
 50
90.0
 51
180.0
  0
LINE
  5
1C3FB
330
1B896
100
AcDbEntity
  8
AM_2
100
AcDbLine
 10
4434.053589289718
 20
95.55364067295181
 30
0.0
 11
4434.053589289718
 21
93.55364064685181
 31
0.0
  0
LINE
  5
1C3FC
330
1B896
100
AcDbEntity
  8
AM_2
100
AcDbLine
 10
4473.053588697423
 20
95.55364074185177
 30
0.0
 11
4438.553589096018
 21
95.55364074185177
 31
0.0
  0
LINE
  5
1C3FD
330
1B896
100
AcDbEntity
  8
AM_2
100
AcDbLine
 10
4434.303589330716
 20
93.55364064685181
 30
0.0
 11
4434.803589179817
 21
92.0536406337518
 31
0.0
  0
LINE
  5
1C3FE
330
1B896
100
AcDbEntity
  8
AM_2
100
AcDbLine
 10
4434.803589179817
 20
92.0536406337518
 30
0.0
 11
4435.303589494616
 21
93.55364064685181
 31
0.0
  0
LINE
  5
1C3FF
330
1B896
100
AcDbEntity
  8
AM_2
100
AcDbLine
 10
4437.303589356818
 20
92.0536406337518
 30
0.0
 11
4437.803589438717
 21
93.55364064685181
 31
0.0
  0
LINE
  5
1C400
330
1B896
100
AcDbEntity
  8
AM_2
100
AcDbLine
 10
4436.803589274817
 20
93.55364064685181
 30
0.0
 11
4437.303589356818
 21
92.0536406337518
 31
0.0
  0
LINE
  5
1C401
330
1B896
100
AcDbEntity
  8
AM_2
100
AcDbLine
 10
4434.053589289718
 20
93.55364064685181
 30
0.0
 11
4438.553589096018
 21
93.55364064685181
 31
0.0
  0
LINE
  5
1C402
330
1B896
100
AcDbEntity
  8
AM_2
100
AcDbLine
 10
4438.553589096018
 20
95.55364074185177
 30
0.0
 11
4434.053589289718
 21
95.55364074185177
 31
0.0
  0
LINE
  5
1C403
330
1B896
100
AcDbEntity
  8
AM_2
100
AcDbLine
 10
4438.579059371417
 20
95.85416060865179
 30
0.0
 11
4438.553589096018
 21
95.55364074185177
 31
0.0
  0
LINE
  5
1C404
330
1B896
100
AcDbEntity
  8
AM_2
100
AcDbLine
 10
4438.650774935019
 20
96.12019849005179
 30
0.0
 11
4438.579059371417
 21
95.85416060865179
 31
0.0
  0
LINE
  5
1C405
330
1B896
100
AcDbEntity
  8
AM_2
100
AcDbLine
 10
4438.764133190417
 20
96.33813868275177
 30
0.0
 11
4438.650774935019
 21
96.12019849005179
 31
0.0
  0
LINE
  5
1C406
330
1B896
100
AcDbEntity
  8
AM_2
100
AcDbLine
 10
4438.921211452818
 20
96.49404929945177
 30
0.0
 11
4438.764133190417
 21
96.33813868275177
 31
0.0
  0
LINE
  5
1C407
330
1B896
100
AcDbEntity
  8
AM_2
100
AcDbLine
 10
4439.110714176418
 20
96.55362321065178
 30
0.0
 11
4438.921211452818
 21
96.49404929945177
 31
0.0
  0
LINE
  5
1C408
330
1B896
100
AcDbEntity
  8
AM_2
100
AcDbLine
 10
4439.114092083318
 20
96.55364067295181
 30
0.0
 11
4439.110714176418
 21
96.55362321065178
 31
0.0
  0
LINE
  5
1C409
330
1B896
100
AcDbEntity
  8
AM_2
100
AcDbLine
 10
4439.114092083318
 20
96.55364067295181
 30
0.0
 11
4472.053590396122
 21
96.55364067295181
 31
0.0
  0
LINE
  5
1C40A
330
1B896
100
AcDbEntity
  8
AM_2
100
AcDbLine
 10
4438.553589096018
 20
93.55364064685181
 30
0.0
 11
4473.053588697423
 21
93.55364064685181
 31
0.0
  0
LINE
  5
1C40B
330
1B896
100
AcDbEntity
  8
AM_2
100
AcDbLine
 10
4438.553589096018
 20
95.55364074185177
 30
0.0
 11
4438.553589096018
 21
93.55364064685181
 31
0.0
  0
ARC
  5
1C40C
330
1B896
100
AcDbEntity
  8
AM_2
100
AcDbCircle
 10
4472.053589273622
 20
95.55364064685182
 30
0.0
 40
1.0
100
AcDbArc
 50
0.0
 51
90.0
  0
LINE
  5
1C40D
330
1B896
100
AcDbEntity
  8
AM_2
100
AcDbLine
 10
4473.053588697423
 20
93.55364064685181
 30
0.0
 11
4473.053588697423
 21
95.55364074185177
 31
0.0
  0
LINE
  5
1C40E
330
1B896
100
AcDbEntity
  8
AM_2
100
AcDbLine
 10
4398.053589289727
 20
103.0536406468518
 30
0.0
 11
4398.053589289727
 21
105.5536406468518
 31
0.0
  0
LINE
  5
1C40F
330
1B896
100
AcDbEntity
  8
AM_2
100
AcDbLine
 10
4431.053589289718
 20
103.5536406468518
 30
0.0
 11
4431.053589289718
 21
134.4961287852718
 31
0.0
  0
LINE
  5
1C410
330
1B896
100
AcDbEntity
  8
AM_2
100
AcDbLine
 10
4458.553589289546
 20
102.5536406468518
 30
0.0
 11
4432.053589289719
 21
102.5536406468518
 31
0.0
  0
ARC
  5
1C411
330
1B896
100
AcDbEntity
  8
AM_2
100
AcDbCircle
 10
4431.553589289728
 20
134.4961287852718
 30
0.0
 40
0.5
100
AcDbArc
 50
83.77417093668704
 51
180.0
  0
LINE
  5
1C412
330
1B896
100
AcDbEntity
  8
AM_2
100
AcDbLine
 10
4431.607813044807
 20
134.9931798735718
 30
0.0
 11
4456.770484309898
 21
132.2481611900918
 31
0.0
  0
LINE
  5
1C413
330
1B896
100
AcDbEntity
  8
AM_2
100
AcDbLine
 10
4458.553589289546
 20
130.259956836872
 30
0.0
 11
4458.553589289546
 21
102.5536406468518
 31
0.0
  0
ARC
  5
1C414
330
1B896
100
AcDbEntity
  8
AM_2
100
AcDbCircle
 10
4456.553589289546
 20
130.259956836872
 30
0.0
 40
2.0
100
AcDbArc
 50
0.0
 51
83.77417093553397
  0
LINE
  5
1C415
330
1B896
100
AcDbEntity
  8
AM_2
100
AcDbLine
 10
4398.053589289727
 20
103.0536406468518
 30
0.0
 11
4431.187563885938
 21
103.0536406468518
 31
0.0
  0
LINE
  5
1C416
330
1B896
100
AcDbEntity
  8
AM_2
100
AcDbLine
 10
4398.053589289727
 20
105.5536406468518
 30
0.0
 11
4431.053589289727
 21
105.5536406468518
 31
0.0
  0
ARC
  5
1C417
330
1B896
100
AcDbEntity
  8
AM_2
100
AcDbCircle
 10
4432.053589289719
 20
103.5536406468618
 30
0.0
 40
1.0
100
AcDbArc
 50
180.0
 51
270.0
  0
LINE
  5
1C418
330
1B896
100
AcDbEntity
  8
AM_0
100
AcDbLine
 10
4431.053589289727
 20
105.5536406468518
 30
0.0
 11
4391.053589289728
 21
105.5536406468518
 31
0.0
  0
LINE
  5
1C419
330
1B896
100
AcDbEntity
  8
OS
 62
     2
100
AcDbLine
 10
4447.053589289728
 20
133.3081861013891
 30
0.0
 11
4447.053589289728
 21
338.7990951923136
 31
0.0
  0
LINE
  5
1C41A
330
1B896
100
AcDbEntity
  8
OS
 62
     2
100
AcDbLine
 10
4388.053589289728
 20
382.0536406468518
 30
0.0
 11
4388.053589289728
 21
93.5536406468517
 31
0.0
  0
POINT
  5
1C41B
330
1B896
100
AcDbEntity
  8
AM_0
100
AcDbPoint
 10
4347.053589289727
 20
278.6283908058372
 30
0.0
  0
LINE
  5
1C41C
330
1B896
100
AcDbEntity
  8
AM_0
100
AcDbLine
 10
4431.053589289727
 20
369.0536406468518
 30
0.0
 11
4431.053589289727
 21
105.5536406468518
 31
0.0
  0
LINE
  5
1C41D
330
1B896
100
AcDbEntity
  8
AM_0
100
AcDbLine
 10
4391.053589289728
 20
369.0536406468518
 30
0.0
 11
4391.053589289728
 21
105.5536406468518
 31
0.0
  0
LINE
  5
1C41E
330
1B896
100
AcDbEntity
  8
OS
 62
     2
100
AcDbLine
 10
4659.753164797042
 20
169.7126830435638
 30
0.0
 11
4659.753164797042
 21
201.7126830435638
 31
0.0
  0
LINE
  5
1C41F
330
1B896
100
AcDbEntity
  8
OS
 62
     2
100
AcDbLine
 10
4659.753164797042
 20
169.7126830435638
 30
0.0
 11
4595.753164797042
 21
169.7126830435638
 31
0.0
  0
LINE
  5
1C420
330
1B896
100
AcDbEntity
  8
OS
 62
     2
100
AcDbLine
 10
4652.753164797043
 20
176.7126830435638
 30
0.0
 11
4659.753164797042
 21
169.7126830435638
 31
0.0
  0
LINE
  5
1C421
330
1B896
100
AcDbEntity
  8
OS
 62
     2
100
AcDbLine
 10
4659.753164797042
 20
313.7126830435638
 30
0.0
 11
4659.753164797042
 21
276.7126830435638
 31
0.0
  0
LINE
  5
1C422
330
1B896
100
AcDbEntity
  8
OS
 62
     2
100
AcDbLine
 10
4659.753164797042
 20
313.7126830435638
 30
0.0
 11
4595.753164797042
 21
313.7126830435638
 31
0.0
  0
LINE
  5
1C423
330
1B896
100
AcDbEntity
  8
OS
 62
     2
100
AcDbLine
 10
4652.753164797043
 20
306.7126830435638
 30
0.0
 11
4659.753164797042
 21
313.7126830435638
 31
0.0
  0
LINE
  5
1C424
330
1B896
100
AcDbEntity
  8
OS
 62
     2
100
AcDbLine
 10
4937.253183413943
 20
201.7126830435638
 30
0.0
 11
4937.253183413943
 21
129.5834776885144
 31
0.0
  0
LINE
  5
1C425
330
1B896
100
AcDbEntity
  8
OS
 62
     2
100
AcDbLine
 10
4944.253183413943
 20
201.7126830435638
 30
0.0
 11
4944.253183413943
 21
116.0192564573698
 31
0.0
  0
LINE
  5
1C426
330
1B896
100
AcDbEntity
  8
OS
 62
     2
100
AcDbLine
 10
4937.253183413943
 20
102.838671016331
 30
0.0
 11
4937.253183413943
 21
74.66655124097127
 31
0.0
  0
LINE
  5
1C427
330
1B896
100
AcDbEntity
  8
AM_0
100
AcDbLine
 10
4667.753164797042
 20
203.7126830435638
 30
0.0
 11
4667.753164797042
 21
236.7126840435639
 31
0.0
  0
LINE
  5
1C428
330
1B896
100
AcDbEntity
  8
AM_0
100
AcDbLine
 10
4667.753164797042
 20
236.7126840435639
 30
0.0
 11
4659.753164797042
 21
236.7126840435639
 31
0.0
  0
LINE
  5
1C429
330
1B896
100
AcDbEntity
  8
AM_0
100
AcDbLine
 10
4667.753164797042
 20
252.7126820435648
 30
0.0
 11
4667.753164797042
 21
274.7126830435638
 31
0.0
  0
LINE
  5
1C42A
330
1B896
100
AcDbEntity
  8
AM_0
100
AcDbLine
 10
4667.753164797042
 20
252.7126820435648
 30
0.0
 11
4659.753164797042
 21
252.7126820435648
 31
0.0
  0
LINE
  5
1C42B
330
1B896
100
AcDbEntity
  8
AM_0
100
AcDbLine
 10
4929.253183413942
 20
203.7126830435638
 30
0.0
 11
4929.253183413942
 21
236.7126840435639
 31
0.0
  0
LINE
  5
1C42C
330
1B896
100
AcDbEntity
  8
AM_0
100
AcDbLine
 10
4929.253183413942
 20
236.7126840435639
 30
0.0
 11
4937.253183413943
 21
236.7126840435639
 31
0.0
  0
LINE
  5
1C42D
330
1B896
100
AcDbEntity
  8
AM_0
100
AcDbLine
 10
4929.253183413942
 20
252.7126820435648
 30
0.0
 11
4929.253183413942
 21
274.7126830435638
 31
0.0
  0
LINE
  5
1C42E
330
1B896
100
AcDbEntity
  8
AM_0
100
AcDbLine
 10
4929.253183413942
 20
252.7126820435648
 30
0.0
 11
4937.253183413943
 21
252.7126820435648
 31
0.0
  0
LINE
  5
1C42F
330
1B896
100
AcDbEntity
  8
AM_0
100
AcDbLine
 10
4667.753164797042
 20
249.3126830435639
 30
0.0
 11
4659.753164797042
 21
249.3126830435639
 31
0.0
  0
LINE
  5
1C430
330
1B896
100
AcDbEntity
  8
AM_0
100
AcDbLine
 10
4667.753164797042
 20
240.1126830435639
 30
0.0
 11
4659.753164797042
 21
240.1126830435639
 31
0.0
  0
LINE
  5
1C431
330
1B896
100
AcDbEntity
  8
AM_0
100
AcDbLine
 10
4659.753164797042
 20
240.1126830435639
 30
0.0
 11
4659.753164797042
 21
236.7126840435639
 31
0.0
  0
LINE
  5
1C432
330
1B896
100
AcDbEntity
  8
AM_0
100
AcDbLine
 10
4659.753164797042
 20
252.7126820435648
 30
0.0
 11
4659.753164797042
 21
249.3126830435639
 31
0.0
  0
LINE
  5
1C433
330
1B896
100
AcDbEntity
  8
AM_0
100
AcDbLine
 10
4667.753164797042
 20
240.1126830435639
 30
0.0
 11
4667.753164797042
 21
249.3126830435639
 31
0.0
  0
LINE
  5
1C434
330
1B896
100
AcDbEntity
  8
AM_2
100
AcDbLine
 10
4679.753164797043
 20
236.2126830435638
 30
0.0
 11
4679.753164797043
 21
253.2126830435649
 31
0.0
  0
LINE
  5
1C435
330
1B896
100
AcDbEntity
  8
AM_2
100
AcDbLine
 10
4679.253164797042
 20
235.7126830435638
 30
0.0
 11
4667.753264797042
 21
235.7126830435638
 31
0.0
  0
LINE
  5
1C436
330
1B896
100
AcDbEntity
  8
AM_2
100
AcDbLine
 10
4660.753284797041
 20
238.2127230435639
 30
0.0
 11
4660.753284797041
 21
239.2127130435647
 31
0.0
  0
LINE
  5
1C437
330
1B896
100
AcDbEntity
  8
AM_2
100
AcDbLine
 10
4662.753164797043
 20
237.1626630435639
 30
0.0
 11
4662.753164797043
 21
237.8127230435638
 31
0.0
  0
LINE
  5
1C438
330
1B896
100
AcDbEntity
  8
AM_2
100
AcDbLine
 10
4664.753224797041
 20
237.1626630435639
 30
0.0
 11
4664.753224797041
 21
237.8127230435638
 31
0.0
  0
LINE
  5
1C439
330
1B896
100
AcDbEntity
  8
AM_2
100
AcDbLine
 10
4666.753284797041
 20
237.1626630435639
 30
0.0
 11
4666.753284797041
 21
237.8127230435638
 31
0.0
  0
LINE
  5
1C43A
330
1B896
100
AcDbEntity
  8
AM_2
100
AcDbLine
 10
4664.753224797041
 20
237.1626630435639
 30
0.0
 11
4662.753164797043
 21
237.8127230435638
 31
0.0
  0
LINE
  5
1C43B
330
1B896
100
AcDbEntity
  8
AM_2
100
AcDbLine
 10
4666.753284797041
 20
237.1626630435639
 30
0.0
 11
4664.753224797041
 21
237.8127230435638
 31
0.0
  0
LINE
  5
1C43C
330
1B896
100
AcDbEntity
  8
AM_2
100
AcDbLine
 10
4662.753164797043
 20
237.1626630435639
 30
0.0
 11
4660.753284797041
 21
238.2127230435639
 31
0.0
  0
LINE
  5
1C43D
330
1B896
100
AcDbEntity
  8
AM_2
100
AcDbLine
 10
4667.971994797042
 20
237.8127230435638
 30
0.0
 11
4666.753284797041
 21
237.8127230435638
 31
0.0
  0
LINE
  5
1C43E
330
1B896
100
AcDbEntity
  8
AM_2
100
AcDbLine
 10
4667.753264797042
 20
235.7126830435638
 30
0.0
 11
4667.971994797042
 21
237.8127230435638
 31
0.0
  0
LINE
  5
1C43F
330
1B896
100
AcDbEntity
  8
AM_2
100
AcDbLine
 10
4662.753164797043
 20
239.612723043564
 30
0.0
 11
4662.753164797043
 21
240.262723043565
 31
0.0
  0
LINE
  5
1C440
330
1B896
100
AcDbEntity
  8
AM_2
100
AcDbLine
 10
4664.753224797041
 20
239.612723043564
 30
0.0
 11
4664.753224797041
 21
240.262723043565
 31
0.0
  0
LINE
  5
1C441
330
1B896
100
AcDbEntity
  8
AM_2
100
AcDbLine
 10
4666.753284797041
 20
239.612723043564
 30
0.0
 11
4666.753284797041
 21
240.262723043565
 31
0.0
  0
LINE
  5
1C442
330
1B896
100
AcDbEntity
  8
AM_2
100
AcDbLine
 10
4664.753224797041
 20
239.612723043564
 30
0.0
 11
4666.753284797041
 21
240.262723043565
 31
0.0
  0
LINE
  5
1C443
330
1B896
100
AcDbEntity
  8
AM_2
100
AcDbLine
 10
4662.753164797043
 20
239.612723043564
 30
0.0
 11
4664.753224797041
 21
240.262723043565
 31
0.0
  0
LINE
  5
1C444
330
1B896
100
AcDbEntity
  8
AM_2
100
AcDbLine
 10
4660.753284797041
 20
239.2127130435647
 30
0.0
 11
4662.753164797043
 21
240.262723043565
 31
0.0
  0
LINE
  5
1C445
330
1B896
100
AcDbEntity
  8
AM_2
100
AcDbLine
 10
4677.953164797041
 20
237.512683043564
 30
0.0
 11
4677.953164797041
 21
251.9126830435638
 31
0.0
  0
LINE
  5
1C446
330
1B896
100
AcDbEntity
  8
AM_2
100
AcDbLine
 10
4677.953164797041
 20
237.512683043564
 30
0.0
 11
4669.750481213985
 21
237.512683043564
 31
0.0
  0
ARC
  5
1C447
330
1B896
100
AcDbEntity
  8
AM_2
100
AcDbCircle
 10
4679.253164797042
 20
236.2126830435638
 30
0.0
 40
0.5
100
AcDbArc
 50
270.0
 51
0.0
  0
ARC
  5
1C448
330
1B896
100
AcDbEntity
  8
AM_2
100
AcDbCircle
 10
4679.253164797042
 20
253.2126830435649
 30
0.0
 40
0.5
100
AcDbArc
 50
0.0
 51
90.0
  0
LINE
  5
1C449
330
1B896
100
AcDbEntity
  8
AM_2
100
AcDbLine
 10
4669.750481213985
 20
237.512683043564
 30
0.0
 11
4669.969211213985
 21
239.612723043564
 31
0.0
  0
LINE
  5
1C44A
330
1B896
100
AcDbEntity
  8
AM_2
100
AcDbLine
 10
4669.969211213985
 20
239.612723043564
 30
0.0
 11
4666.753284797041
 21
239.612723043564
 31
0.0
  0
LINE
  5
1C44B
330
1B896
100
AcDbEntity
  8
AM_2
100
AcDbLine
 10
4669.969211213985
 20
249.8126430435648
 30
0.0
 11
4666.753284797041
 21
249.8126430435648
 31
0.0
  0
LINE
  5
1C44C
330
1B896
100
AcDbEntity
  8
AM_2
100
AcDbLine
 10
4669.750481213985
 20
251.9126830435638
 30
0.0
 11
4669.969211213985
 21
249.8126430435648
 31
0.0
  0
LINE
  5
1C44D
330
1B896
100
AcDbEntity
  8
AM_2
100
AcDbLine
 10
4660.753284797041
 20
250.2126530435638
 30
0.0
 11
4662.753164797043
 21
249.1626430435638
 31
0.0
  0
LINE
  5
1C44E
330
1B896
100
AcDbEntity
  8
AM_2
100
AcDbLine
 10
4662.753164797043
 20
249.8126430435648
 30
0.0
 11
4664.753224797041
 21
249.1626430435638
 31
0.0
  0
LINE
  5
1C44F
330
1B896
100
AcDbEntity
  8
AM_2
100
AcDbLine
 10
4664.753224797041
 20
249.8126430435648
 30
0.0
 11
4666.753284797041
 21
249.1626430435638
 31
0.0
  0
LINE
  5
1C450
330
1B896
100
AcDbEntity
  8
AM_2
100
AcDbLine
 10
4666.753284797041
 20
249.8126430435648
 30
0.0
 11
4666.753284797041
 21
249.1626430435638
 31
0.0
  0
LINE
  5
1C451
330
1B896
100
AcDbEntity
  8
AM_2
100
AcDbLine
 10
4664.753224797041
 20
249.8126430435648
 30
0.0
 11
4664.753224797041
 21
249.1626430435638
 31
0.0
  0
LINE
  5
1C452
330
1B896
100
AcDbEntity
  8
AM_2
100
AcDbLine
 10
4662.753164797043
 20
249.8126430435648
 30
0.0
 11
4662.753164797043
 21
249.1626430435638
 31
0.0
  0
LINE
  5
1C453
330
1B896
100
AcDbEntity
  8
AM_2
100
AcDbLine
 10
4667.753264797042
 20
253.7126830435649
 30
0.0
 11
4667.971994797042
 21
251.612643043564
 31
0.0
  0
LINE
  5
1C454
330
1B896
100
AcDbEntity
  8
AM_2
100
AcDbLine
 10
4667.971994797042
 20
251.612643043564
 30
0.0
 11
4666.753284797041
 21
251.612643043564
 31
0.0
  0
LINE
  5
1C455
330
1B896
100
AcDbEntity
  8
AM_2
100
AcDbLine
 10
4662.753164797043
 20
252.2627030435639
 30
0.0
 11
4660.753284797041
 21
251.2126430435639
 31
0.0
  0
LINE
  5
1C456
330
1B896
100
AcDbEntity
  8
AM_2
100
AcDbLine
 10
4666.753284797041
 20
252.2627030435639
 30
0.0
 11
4664.753224797041
 21
251.612643043564
 31
0.0
  0
LINE
  5
1C457
330
1B896
100
AcDbEntity
  8
AM_2
100
AcDbLine
 10
4664.753224797041
 20
252.2627030435639
 30
0.0
 11
4662.753164797043
 21
251.612643043564
 31
0.0
  0
LINE
  5
1C458
330
1B896
100
AcDbEntity
  8
AM_2
100
AcDbLine
 10
4666.753284797041
 20
252.2627030435639
 30
0.0
 11
4666.753284797041
 21
251.612643043564
 31
0.0
  0
LINE
  5
1C459
330
1B896
100
AcDbEntity
  8
AM_2
100
AcDbLine
 10
4664.753224797041
 20
252.2627030435639
 30
0.0
 11
4664.753224797041
 21
251.612643043564
 31
0.0
  0
LINE
  5
1C45A
330
1B896
100
AcDbEntity
  8
AM_2
100
AcDbLine
 10
4662.753164797043
 20
252.2627030435639
 30
0.0
 11
4662.753164797043
 21
251.612643043564
 31
0.0
  0
LINE
  5
1C45B
330
1B896
100
AcDbEntity
  8
AM_2
100
AcDbLine
 10
4660.753284797041
 20
251.2126430435639
 30
0.0
 11
4660.753284797041
 21
250.2126530435638
 31
0.0
  0
LINE
  5
1C45C
330
1B896
100
AcDbEntity
  8
AM_2
100
AcDbLine
 10
4677.953164797041
 20
251.9126830435638
 30
0.0
 11
4669.750481213985
 21
251.9126830435638
 31
0.0
  0
LINE
  5
1C45D
330
1B896
100
AcDbEntity
  8
AM_2
100
AcDbLine
 10
4679.253164797042
 20
253.7126830435649
 30
0.0
 11
4667.753264797042
 21
253.7126830435649
 31
0.0
  0
LINE
  5
1C45E
330
1B896
100
AcDbEntity
  8
AM_2
100
AcDbLine
 10
4676.753164797043
 20
235.7126830435638
 30
0.0
 11
4676.753164797043
 21
234.214117581577
 31
0.0
  0
ARC
  5
1C45F
330
1B896
100
AcDbEntity
  8
AM_2
100
AcDbCircle
 10
4673.290843433897
 20
237.45547220055
 30
0.0
 40
4.7427891569855
100
AcDbArc
 50
229.8242923710145
 51
316.8879014584778
  0
LINE
  5
1C460
330
1B896
100
AcDbEntity
  8
AM_2
100
AcDbLine
 10
4675.753164797042
 20
235.2126830435638
 30
0.0
 11
4675.753164797042
 21
234.6367058262848
 31
0.0
  0
LINE
  5
1C461
330
1B896
100
AcDbEntity
  8
AM_2
100
AcDbLine
 10
4674.753164797042
 20
235.7126830435638
 30
0.0
 11
4674.753164797042
 21
235.2126830435638
 31
0.0
  0
LINE
  5
1C462
330
1B896
100
AcDbEntity
  8
AM_2
100
AcDbLine
 10
4674.753164797042
 20
235.2126830435638
 30
0.0
 11
4675.753164797042
 21
235.2126830435638
 31
0.0
  0
ARC
  5
1C463
330
1B896
100
AcDbEntity
  8
AM_2
100
AcDbCircle
 10
4670.553164797041
 20
234.214117581577
 30
0.0
 40
0.5
100
AcDbArc
 50
49.77485877881804
 51
229.9010319404043
  0
ARC
  5
1C464
330
1B896
100
AcDbEntity
  8
AM_2
100
AcDbCircle
 10
4673.290842900242
 20
237.4554733386458
 30
0.0
 40
3.74279032437102
100
AcDbArc
 50
229.8206620447951
 51
311.1386941224166
  0
LINE
  5
1C465
330
1B896
100
AcDbEntity
  8
AM_2
100
AcDbLine
 10
4662.91925772925
 20
249.8126430435648
 30
0.0
 11
4662.878518875816
 21
249.7719041901279
 31
0.0
  0
LINE
  5
1C466
330
1B896
100
AcDbEntity
  8
AM_2
100
AcDbLine
 10
4663.233566693488
 20
249.8126430435648
 30
0.0
 11
4663.115734933946
 21
249.6948112840229
 31
0.0
  0
LINE
  5
1C467
330
1B896
100
AcDbEntity
  8
AM_2
100
AcDbLine
 10
4663.547875657725
 20
249.8126430435648
 30
0.0
 11
4663.352950992079
 21
249.617718377917
 31
0.0
  0
LINE
  5
1C468
330
1B896
100
AcDbEntity
  8
AM_2
100
AcDbLine
 10
4663.862184621963
 20
249.8126430435648
 30
0.0
 11
4663.59016705021
 21
249.540625471812
 31
0.0
  0
LINE
  5
1C469
330
1B896
100
AcDbEntity
  8
AM_2
100
AcDbLine
 10
4664.176493586201
 20
249.8126430435648
 30
0.0
 11
4663.827383108342
 21
249.4635325657057
 31
0.0
  0
LINE
  5
1C46A
330
1B896
100
AcDbEntity
  8
AM_2
100
AcDbLine
 10
4664.490802550437
 20
249.8126430435648
 30
0.0
 11
4664.064599166473
 21
249.3864396595999
 31
0.0
  0
LINE
  5
1C46B
330
1B896
100
AcDbEntity
  8
AM_2
100
AcDbLine
 10
4664.753224797041
 20
249.7607563259309
 30
0.0
 11
4664.301815224606
 21
249.3093467534949
 31
0.0
  0
LINE
  5
1C46C
330
1B896
100
AcDbEntity
  8
AM_2
100
AcDbLine
 10
4664.753224797041
 20
249.4464473616939
 30
0.0
 11
4664.539031282736
 21
249.232253847389
 31
0.0
  0
LINE
  5
1C46D
330
1B896
100
AcDbEntity
  8
AM_2
100
AcDbLine
 10
4661.662021872301
 20
249.8126430435648
 30
0.0
 11
4661.61145905935
 21
249.7620802306117
 31
0.0
  0
LINE
  5
1C46E
330
1B896
100
AcDbEntity
  8
AM_2
100
AcDbLine
 10
4661.976330836538
 20
249.8126430435648
 30
0.0
 11
4661.817558365028
 21
249.6538705720549
 31
0.0
  0
LINE
  5
1C46F
330
1B896
100
AcDbEntity
  8
AM_2
100
AcDbLine
 10
4662.290639800776
 20
249.8126430435648
 30
0.0
 11
4662.023657670708
 21
249.5456609134968
 31
0.0
  0
LINE
  5
1C470
330
1B896
100
AcDbEntity
  8
AM_2
100
AcDbLine
 10
4662.604948765014
 20
249.8126430435648
 30
0.0
 11
4662.229756976389
 21
249.4374512549388
 31
0.0
  0
LINE
  5
1C471
330
1B896
100
AcDbEntity
  8
AM_2
100
AcDbLine
 10
4662.753164797043
 20
249.646550111355
 30
0.0
 11
4662.435856282067
 21
249.329241596381
 31
0.0
  0
LINE
  5
1C472
330
1B896
100
AcDbEntity
  8
AM_2
100
AcDbLine
 10
4662.753164797043
 20
249.3322411471178
 30
0.0
 11
4662.641955587747
 21
249.2210319378228
 31
0.0
  0
LINE
  5
1C473
330
1B896
100
AcDbEntity
  8
AM_2
100
AcDbLine
 10
4664.805111514676
 20
249.8126430435648
 30
0.0
 11
4664.792384872085
 21
249.7999164009748
 31
0.0
  0
LINE
  5
1C474
330
1B896
100
AcDbEntity
  8
AM_2
100
AcDbLine
 10
4665.119420478913
 20
249.8126430435648
 30
0.0
 11
4665.029600930217
 21
249.7228234948688
 31
0.0
  0
LINE
  5
1C475
330
1B896
100
AcDbEntity
  8
AM_2
100
AcDbLine
 10
4665.43372944315
 20
249.8126430435648
 30
0.0
 11
4665.266816988348
 21
249.6457305887629
 31
0.0
  0
LINE
  5
1C476
330
1B896
100
AcDbEntity
  8
AM_2
100
AcDbLine
 10
4665.748038407388
 20
249.8126430435648
 30
0.0
 11
4665.504033046482
 21
249.5686376826569
 31
0.0
  0
LINE
  5
1C477
330
1B896
100
AcDbEntity
  8
AM_2
100
AcDbLine
 10
4666.062347371626
 20
249.8126430435648
 30
0.0
 11
4665.741249104612
 21
249.4915447765519
 31
0.0
  0
LINE
  5
1C478
330
1B896
100
AcDbEntity
  8
AM_2
100
AcDbLine
 10
4666.376656335862
 20
249.8126430435648
 30
0.0
 11
4665.978465162743
 21
249.4144518704458
 31
0.0
  0
LINE
  5
1C479
330
1B896
100
AcDbEntity
  8
AM_2
100
AcDbLine
 10
4666.690965300101
 20
249.8126430435648
 30
0.0
 11
4666.215681220875
 21
249.3373589643399
 31
0.0
  0
LINE
  5
1C47A
330
1B896
100
AcDbEntity
  8
AM_2
100
AcDbLine
 10
4666.753284797041
 20
249.5606535762689
 30
0.0
 11
4666.452897279007
 21
249.2602660582349
 31
0.0
  0
LINE
  5
1C47B
330
1B896
100
AcDbEntity
  8
AM_2
100
AcDbLine
 10
4666.753284797041
 20
249.2463446120318
 30
0.0
 11
4666.690113337139
 21
249.1831731521289
 31
0.0
  0
LINE
  5
1C47C
330
1B896
100
AcDbEntity
  8
AM_2
100
AcDbLine
 10
4676.753164797043
 20
235.2978874641067
 30
0.0
 11
4676.338369217584
 21
235.7126830435638
 31
0.0
  0
LINE
  5
1C47D
330
1B896
100
AcDbEntity
  8
AM_2
100
AcDbLine
 10
4676.753164797043
 20
234.3998618519999
 30
0.0
 11
4675.440343605476
 21
235.7126830435638
 31
0.0
  0
LINE
  5
1C47E
330
1B896
100
AcDbEntity
  8
AM_2
100
AcDbLine
 10
4675.042317993369
 20
235.2126830435638
 30
0.0
 11
4674.753164797042
 21
235.5018362398928
 31
0.0
  0
LINE
  5
1C47F
330
1B896
100
AcDbEntity
  8
AM_2
100
AcDbLine
 10
4676.389835142941
 20
233.8651658939938
 30
0.0
 11
4675.680311871023
 21
234.5746891659118
 31
0.0
  0
LINE
  5
1C480
330
1B896
100
AcDbEntity
  8
AM_2
100
AcDbLine
 10
4675.877096665481
 20
233.4798787593468
 30
0.0
 11
4675.149929085312
 21
234.207046339515
 31
0.0
  0
LINE
  5
1C481
330
1B896
100
AcDbEntity
  8
AM_2
100
AcDbLine
 10
4675.299780686201
 20
233.1591691265188
 30
0.0
 11
4674.533836961993
 21
233.925112850728
 31
0.0
  0
LINE
  5
1C482
330
1B896
100
AcDbEntity
  8
AM_2
100
AcDbLine
 10
4674.649477052573
 20
232.9114471480408
 30
0.0
 11
4673.811806999649
 21
233.749117200964
 31
0.0
  0
LINE
  5
1C483
330
1B896
100
AcDbEntity
  8
AM_2
100
AcDbLine
 10
4673.909670721819
 20
232.7532278666869
 30
0.0
 11
4672.933077298334
 21
233.729821290173
 31
0.0
  0
LINE
  5
1C484
330
1B896
100
AcDbEntity
  8
AM_2
100
AcDbLine
 10
4673.04585845515
 20
232.7190145212489
 30
0.0
 11
4671.694853330431
 21
234.0700196459699
 31
0.0
  0
LINE
  5
1C485
330
1B896
100
AcDbEntity
  8
AM_2
100
AcDbLine
 10
4671.965106730314
 20
232.9017406339778
 30
0.0
 11
4670.252916286386
 21
234.613931077906
 31
0.0
  0
LINE
  5
1C486
330
1B896
100
AcDbEntity
  8
AM_2
100
AcDbLine
 10
4666.753284797041
 20
240.1790214750969
 30
0.0
 11
4666.690113337139
 21
240.242192935
 31
0.0
  0
LINE
  5
1C487
330
1B896
100
AcDbEntity
  8
AM_2
100
AcDbLine
 10
4666.753284797041
 20
239.86471251086
 30
0.0
 11
4666.452897279007
 21
240.1651000288937
 31
0.0
  0
LINE
  5
1C488
330
1B896
100
AcDbEntity
  8
AM_2
100
AcDbLine
 10
4666.690965300101
 20
239.612723043564
 30
0.0
 11
4666.215681220875
 21
240.0880071227879
 31
0.0
  0
LINE
  5
1C489
330
1B896
100
AcDbEntity
  8
AM_2
100
AcDbLine
 10
4666.376656335862
 20
239.612723043564
 30
0.0
 11
4665.978465162743
 21
240.0109142166829
 31
0.0
  0
LINE
  5
1C48A
330
1B896
100
AcDbEntity
  8
AM_2
100
AcDbLine
 10
4666.062347371626
 20
239.612723043564
 30
0.0
 11
4665.741249104612
 21
239.933821310577
 31
0.0
  0
LINE
  5
1C48B
330
1B896
100
AcDbEntity
  8
AM_2
100
AcDbLine
 10
4665.748038407388
 20
239.612723043564
 30
0.0
 11
4665.504033046482
 21
239.8567284044708
 31
0.0
  0
LINE
  5
1C48C
330
1B896
100
AcDbEntity
  8
AM_2
100
AcDbLine
 10
4665.43372944315
 20
239.612723043564
 30
0.0
 11
4665.266816988348
 21
239.7796354983649
 31
0.0
  0
LINE
  5
1C48D
330
1B896
100
AcDbEntity
  8
AM_2
100
AcDbLine
 10
4665.119420478913
 20
239.612723043564
 30
0.0
 11
4665.029600930217
 21
239.7025425922599
 31
0.0
  0
LINE
  5
1C48E
330
1B896
100
AcDbEntity
  8
AM_2
100
AcDbLine
 10
4664.805111514676
 20
239.612723043564
 30
0.0
 11
4664.792384872085
 21
239.625449686154
 31
0.0
  0
LINE
  5
1C48F
330
1B896
100
AcDbEntity
  8
AM_2
100
AcDbLine
 10
4662.753164797043
 20
240.0931249400109
 30
0.0
 11
4662.641955587747
 21
240.204334149306
 31
0.0
  0
LINE
  5
1C490
330
1B896
100
AcDbEntity
  8
AM_2
100
AcDbLine
 10
4662.753164797043
 20
239.7788159757739
 30
0.0
 11
4662.435856282067
 21
240.0961244907479
 31
0.0
  0
LINE
  5
1C491
330
1B896
100
AcDbEntity
  8
AM_2
100
AcDbLine
 10
4662.604948765014
 20
239.612723043564
 30
0.0
 11
4662.229756976389
 21
239.9879148321899
 31
0.0
  0
LINE
  5
1C492
330
1B896
100
AcDbEntity
  8
AM_2
100
AcDbLine
 10
4662.290639800776
 20
239.612723043564
 30
0.0
 11
4662.023657670708
 21
239.8797051736317
 31
0.0
  0
LINE
  5
1C493
330
1B896
100
AcDbEntity
  8
AM_2
100
AcDbLine
 10
4661.976330836538
 20
239.612723043564
 30
0.0
 11
4661.817558365028
 21
239.7714955150738
 31
0.0
  0
LINE
  5
1C494
330
1B896
100
AcDbEntity
  8
AM_2
100
AcDbLine
 10
4661.662021872301
 20
239.612723043564
 30
0.0
 11
4661.61145905935
 21
239.663285856516
 31
0.0
  0
LINE
  5
1C495
330
1B896
100
AcDbEntity
  8
AM_2
100
AcDbLine
 10
4664.753224797041
 20
239.978918725435
 30
0.0
 11
4664.539031282736
 21
240.1931122397399
 31
0.0
  0
LINE
  5
1C496
330
1B896
100
AcDbEntity
  8
AM_2
100
AcDbLine
 10
4664.753224797041
 20
239.6646097611978
 30
0.0
 11
4664.301815224606
 21
240.1160193336338
 31
0.0
  0
LINE
  5
1C497
330
1B896
100
AcDbEntity
  8
AM_2
100
AcDbLine
 10
4664.490802550437
 20
239.612723043564
 30
0.0
 11
4664.064599166473
 21
240.038926427529
 31
0.0
  0
LINE
  5
1C498
330
1B896
100
AcDbEntity
  8
AM_2
100
AcDbLine
 10
4664.176493586201
 20
239.612723043564
 30
0.0
 11
4663.827383108342
 21
239.9618335214228
 31
0.0
  0
LINE
  5
1C499
330
1B896
100
AcDbEntity
  8
AM_2
100
AcDbLine
 10
4663.862184621963
 20
239.612723043564
 30
0.0
 11
4663.59016705021
 21
239.8847406153169
 31
0.0
  0
LINE
  5
1C49A
330
1B896
100
AcDbEntity
  8
AM_2
100
AcDbLine
 10
4663.547875657725
 20
239.612723043564
 30
0.0
 11
4663.352950992079
 21
239.8076477092108
 31
0.0
  0
LINE
  5
1C49B
330
1B896
100
AcDbEntity
  8
AM_2
100
AcDbLine
 10
4663.233566693488
 20
239.612723043564
 30
0.0
 11
4663.115734933946
 21
239.7305548031058
 31
0.0
  0
LINE
  5
1C49C
330
1B896
100
AcDbEntity
  8
AM_2
100
AcDbLine
 10
4662.91925772925
 20
239.612723043564
 30
0.0
 11
4662.878518875816
 21
239.6534618969999
 31
0.0
  0
LINE
  5
1C49D
330
1B896
100
AcDbEntity
  8
AM_2
100
AcDbLine
 10
4666.753284797041
 20
239.612723043564
 30
0.0
 11
4661.515155635223
 21
239.612723043564
 31
0.0
  0
LINE
  5
1C49E
330
1B896
100
AcDbEntity
  8
AM_2
100
AcDbLine
 10
4666.753284797041
 20
249.8126430435648
 30
0.0
 11
4661.515155635223
 21
249.8126430435648
 31
0.0
  0
LINE
  5
1C49F
330
1B896
100
AcDbEntity
  8
AM_0
100
AcDbLine
 10
4929.253183413942
 20
249.3126830435639
 30
0.0
 11
4937.253183413943
 21
249.3126830435639
 31
0.0
  0
LINE
  5
1C4A0
330
1B896
100
AcDbEntity
  8
AM_0
100
AcDbLine
 10
4929.253183413942
 20
240.1126830435639
 30
0.0
 11
4937.253183413943
 21
240.1126830435639
 31
0.0
  0
LINE
  5
1C4A1
330
1B896
100
AcDbEntity
  8
AM_0
100
AcDbLine
 10
4937.253183413943
 20
240.1126830435639
 30
0.0
 11
4937.253183413943
 21
236.7126840435639
 31
0.0
  0
LINE
  5
1C4A2
330
1B896
100
AcDbEntity
  8
AM_0
100
AcDbLine
 10
4937.253183413943
 20
252.7126820435648
 30
0.0
 11
4937.253183413943
 21
249.3126830435639
 31
0.0
  0
LINE
  5
1C4A3
330
1B896
100
AcDbEntity
  8
AM_0
100
AcDbLine
 10
4929.253183413942
 20
240.1126830435639
 30
0.0
 11
4929.253183413942
 21
249.3126830435639
 31
0.0
  0
LINE
  5
1C4A4
330
1B896
100
AcDbEntity
  8
AM_2
100
AcDbLine
 10
4917.253183413943
 20
236.2126830435638
 30
0.0
 11
4917.253183413943
 21
253.2126830435649
 31
0.0
  0
LINE
  5
1C4A5
330
1B896
100
AcDbEntity
  8
AM_2
100
AcDbLine
 10
4917.753183413942
 20
235.7126830435638
 30
0.0
 11
4929.253083413942
 21
235.7126830435638
 31
0.0
  0
LINE
  5
1C4A6
330
1B896
100
AcDbEntity
  8
AM_2
100
AcDbLine
 10
4936.253063413943
 20
238.2127230435639
 30
0.0
 11
4936.253063413943
 21
239.2127130435647
 31
0.0
  0
LINE
  5
1C4A7
330
1B896
100
AcDbEntity
  8
AM_2
100
AcDbLine
 10
4934.253183413943
 20
237.1626630435639
 30
0.0
 11
4934.253183413943
 21
237.8127230435638
 31
0.0
  0
LINE
  5
1C4A8
330
1B896
100
AcDbEntity
  8
AM_2
100
AcDbLine
 10
4932.253123413943
 20
237.1626630435639
 30
0.0
 11
4932.253123413943
 21
237.8127230435638
 31
0.0
  0
LINE
  5
1C4A9
330
1B896
100
AcDbEntity
  8
AM_2
100
AcDbLine
 10
4930.253063413942
 20
237.1626630435639
 30
0.0
 11
4930.253063413942
 21
237.8127230435638
 31
0.0
  0
LINE
  5
1C4AA
330
1B896
100
AcDbEntity
  8
AM_2
100
AcDbLine
 10
4932.253123413943
 20
237.1626630435639
 30
0.0
 11
4934.253183413943
 21
237.8127230435638
 31
0.0
  0
LINE
  5
1C4AB
330
1B896
100
AcDbEntity
  8
AM_2
100
AcDbLine
 10
4930.253063413942
 20
237.1626630435639
 30
0.0
 11
4932.253123413943
 21
237.8127230435638
 31
0.0
  0
LINE
  5
1C4AC
330
1B896
100
AcDbEntity
  8
AM_2
100
AcDbLine
 10
4934.253183413943
 20
237.1626630435639
 30
0.0
 11
4936.253063413943
 21
238.2127230435639
 31
0.0
  0
LINE
  5
1C4AD
330
1B896
100
AcDbEntity
  8
AM_2
100
AcDbLine
 10
4929.034353413943
 20
237.8127230435638
 30
0.0
 11
4930.253063413942
 21
237.8127230435638
 31
0.0
  0
LINE
  5
1C4AE
330
1B896
100
AcDbEntity
  8
AM_2
100
AcDbLine
 10
4929.253083413942
 20
235.7126830435638
 30
0.0
 11
4929.034353413943
 21
237.8127230435638
 31
0.0
  0
LINE
  5
1C4AF
330
1B896
100
AcDbEntity
  8
AM_2
100
AcDbLine
 10
4934.253183413943
 20
239.612723043564
 30
0.0
 11
4934.253183413943
 21
240.262723043565
 31
0.0
  0
LINE
  5
1C4B0
330
1B896
100
AcDbEntity
  8
AM_2
100
AcDbLine
 10
4932.253123413943
 20
239.612723043564
 30
0.0
 11
4932.253123413943
 21
240.262723043565
 31
0.0
  0
LINE
  5
1C4B1
330
1B896
100
AcDbEntity
  8
AM_2
100
AcDbLine
 10
4930.253063413942
 20
239.612723043564
 30
0.0
 11
4930.253063413942
 21
240.262723043565
 31
0.0
  0
LINE
  5
1C4B2
330
1B896
100
AcDbEntity
  8
AM_2
100
AcDbLine
 10
4932.253123413943
 20
239.612723043564
 30
0.0
 11
4930.253063413942
 21
240.262723043565
 31
0.0
  0
LINE
  5
1C4B3
330
1B896
100
AcDbEntity
  8
AM_2
100
AcDbLine
 10
4934.253183413943
 20
239.612723043564
 30
0.0
 11
4932.253123413943
 21
240.262723043565
 31
0.0
  0
LINE
  5
1C4B4
330
1B896
100
AcDbEntity
  8
AM_2
100
AcDbLine
 10
4936.253063413943
 20
239.2127130435647
 30
0.0
 11
4934.253183413943
 21
240.262723043565
 31
0.0
  0
LINE
  5
1C4B5
330
1B896
100
AcDbEntity
  8
AM_2
100
AcDbLine
 10
4919.053183413942
 20
237.512683043564
 30
0.0
 11
4919.053183413942
 21
251.9126830435638
 31
0.0
  0
LINE
  5
1C4B6
330
1B896
100
AcDbEntity
  8
AM_2
100
AcDbLine
 10
4919.053183413942
 20
237.512683043564
 30
0.0
 11
4927.255866996999
 21
237.512683043564
 31
0.0
  0
ARC
  5
1C4B7
330
1B896
100
AcDbEntity
  8
AM_2
100
AcDbCircle
 10
4917.753183413942
 20
236.2126830435638
 30
0.0
 40
0.5
100
AcDbArc
 50
180.0
 51
270.0
  0
ARC
  5
1C4B8
330
1B896
100
AcDbEntity
  8
AM_2
100
AcDbCircle
 10
4917.753183413942
 20
253.2126830435649
 30
0.0
 40
0.5
100
AcDbArc
 50
90.0
 51
180.0
  0
LINE
  5
1C4B9
330
1B896
100
AcDbEntity
  8
AM_2
100
AcDbLine
 10
4927.255866996999
 20
237.512683043564
 30
0.0
 11
4927.037136996998
 21
239.612723043564
 31
0.0
  0
LINE
  5
1C4BA
330
1B896
100
AcDbEntity
  8
AM_2
100
AcDbLine
 10
4927.037136996998
 20
239.612723043564
 30
0.0
 11
4930.253063413942
 21
239.612723043564
 31
0.0
  0
LINE
  5
1C4BB
330
1B896
100
AcDbEntity
  8
AM_2
100
AcDbLine
 10
4927.037136996998
 20
249.8126430435648
 30
0.0
 11
4930.253063413942
 21
249.8126430435648
 31
0.0
  0
LINE
  5
1C4BC
330
1B896
100
AcDbEntity
  8
AM_2
100
AcDbLine
 10
4927.255866996999
 20
251.9126830435638
 30
0.0
 11
4927.037136996998
 21
249.8126430435648
 31
0.0
  0
LINE
  5
1C4BD
330
1B896
100
AcDbEntity
  8
AM_2
100
AcDbLine
 10
4936.253063413943
 20
250.2126530435638
 30
0.0
 11
4934.253183413943
 21
249.1626430435638
 31
0.0
  0
LINE
  5
1C4BE
330
1B896
100
AcDbEntity
  8
AM_2
100
AcDbLine
 10
4934.253183413943
 20
249.8126430435648
 30
0.0
 11
4932.253123413943
 21
249.1626430435638
 31
0.0
  0
LINE
  5
1C4BF
330
1B896
100
AcDbEntity
  8
AM_2
100
AcDbLine
 10
4932.253123413943
 20
249.8126430435648
 30
0.0
 11
4930.253063413942
 21
249.1626430435638
 31
0.0
  0
LINE
  5
1C4C0
330
1B896
100
AcDbEntity
  8
AM_2
100
AcDbLine
 10
4930.253063413942
 20
249.8126430435648
 30
0.0
 11
4930.253063413942
 21
249.1626430435638
 31
0.0
  0
LINE
  5
1C4C1
330
1B896
100
AcDbEntity
  8
AM_2
100
AcDbLine
 10
4932.253123413943
 20
249.8126430435648
 30
0.0
 11
4932.253123413943
 21
249.1626430435638
 31
0.0
  0
LINE
  5
1C4C2
330
1B896
100
AcDbEntity
  8
AM_2
100
AcDbLine
 10
4934.253183413943
 20
249.8126430435648
 30
0.0
 11
4934.253183413943
 21
249.1626430435638
 31
0.0
  0
LINE
  5
1C4C3
330
1B896
100
AcDbEntity
  8
AM_2
100
AcDbLine
 10
4929.253083413942
 20
253.7126830435649
 30
0.0
 11
4929.034353413943
 21
251.612643043564
 31
0.0
  0
LINE
  5
1C4C4
330
1B896
100
AcDbEntity
  8
AM_2
100
AcDbLine
 10
4929.034353413943
 20
251.612643043564
 30
0.0
 11
4930.253063413942
 21
251.612643043564
 31
0.0
  0
LINE
  5
1C4C5
330
1B896
100
AcDbEntity
  8
AM_2
100
AcDbLine
 10
4934.253183413943
 20
252.2627030435639
 30
0.0
 11
4936.253063413943
 21
251.2126430435639
 31
0.0
  0
LINE
  5
1C4C6
330
1B896
100
AcDbEntity
  8
AM_2
100
AcDbLine
 10
4930.253063413942
 20
252.2627030435639
 30
0.0
 11
4932.253123413943
 21
251.612643043564
 31
0.0
  0
LINE
  5
1C4C7
330
1B896
100
AcDbEntity
  8
AM_2
100
AcDbLine
 10
4932.253123413943
 20
252.2627030435639
 30
0.0
 11
4934.253183413943
 21
251.612643043564
 31
0.0
  0
LINE
  5
1C4C8
330
1B896
100
AcDbEntity
  8
AM_2
100
AcDbLine
 10
4930.253063413942
 20
252.2627030435639
 30
0.0
 11
4930.253063413942
 21
251.612643043564
 31
0.0
  0
LINE
  5
1C4C9
330
1B896
100
AcDbEntity
  8
AM_2
100
AcDbLine
 10
4932.253123413943
 20
252.2627030435639
 30
0.0
 11
4932.253123413943
 21
251.612643043564
 31
0.0
  0
LINE
  5
1C4CA
330
1B896
100
AcDbEntity
  8
AM_2
100
AcDbLine
 10
4934.253183413943
 20
252.2627030435639
 30
0.0
 11
4934.253183413943
 21
251.612643043564
 31
0.0
  0
LINE
  5
1C4CB
330
1B896
100
AcDbEntity
  8
AM_2
100
AcDbLine
 10
4936.253063413943
 20
251.2126430435639
 30
0.0
 11
4936.253063413943
 21
250.2126530435638
 31
0.0
  0
LINE
  5
1C4CC
330
1B896
100
AcDbEntity
  8
AM_2
100
AcDbLine
 10
4919.053183413942
 20
251.9126830435638
 30
0.0
 11
4927.255866996999
 21
251.9126830435638
 31
0.0
  0
LINE
  5
1C4CD
330
1B896
100
AcDbEntity
  8
AM_2
100
AcDbLine
 10
4917.753183413942
 20
253.7126830435649
 30
0.0
 11
4929.253083413942
 21
253.7126830435649
 31
0.0
  0
LINE
  5
1C4CE
330
1B896
100
AcDbEntity
  8
AM_2
100
AcDbLine
 10
4934.087090481733
 20
249.8126430435648
 30
0.0
 11
4934.127829335167
 21
249.7719041901279
 31
0.0
  0
LINE
  5
1C4CF
330
1B896
100
AcDbEntity
  8
AM_2
100
AcDbLine
 10
4933.772781517497
 20
249.8126430435648
 30
0.0
 11
4933.890613277037
 21
249.6948112840229
 31
0.0
  0
LINE
  5
1C4D0
330
1B896
100
AcDbEntity
  8
AM_2
100
AcDbLine
 10
4933.458472553258
 20
249.8126430435648
 30
0.0
 11
4933.653397218904
 21
249.617718377917
 31
0.0
  0
LINE
  5
1C4D1
330
1B896
100
AcDbEntity
  8
AM_2
100
AcDbLine
 10
4933.14416358902
 20
249.8126430435648
 30
0.0
 11
4933.416181160773
 21
249.540625471812
 31
0.0
  0
LINE
  5
1C4D2
330
1B896
100
AcDbEntity
  8
AM_2
100
AcDbLine
 10
4932.829854624782
 20
249.8126430435648
 30
0.0
 11
4933.178965102641
 21
249.4635325657057
 31
0.0
  0
LINE
  5
1C4D3
330
1B896
100
AcDbEntity
  8
AM_2
100
AcDbLine
 10
4932.515545660546
 20
249.8126430435648
 30
0.0
 11
4932.94174904451
 21
249.3864396595999
 31
0.0
  0
LINE
  5
1C4D4
330
1B896
100
AcDbEntity
  8
AM_2
100
AcDbLine
 10
4932.253123413943
 20
249.7607563259309
 30
0.0
 11
4932.704532986377
 21
249.3093467534949
 31
0.0
  0
LINE
  5
1C4D5
330
1B896
100
AcDbEntity
  8
AM_2
100
AcDbLine
 10
4932.253123413943
 20
249.4464473616939
 30
0.0
 11
4932.467316928247
 21
249.232253847389
 31
0.0
  0
LINE
  5
1C4D6
330
1B896
100
AcDbEntity
  8
AM_2
100
AcDbLine
 10
4935.344326338682
 20
249.8126430435648
 30
0.0
 11
4935.394889151634
 21
249.7620802306117
 31
0.0
  0
LINE
  5
1C4D7
330
1B896
100
AcDbEntity
  8
AM_2
100
AcDbLine
 10
4935.030017374446
 20
249.8126430435648
 30
0.0
 11
4935.188789845955
 21
249.6538705720549
 31
0.0
  0
LINE
  5
1C4D8
330
1B896
100
AcDbEntity
  8
AM_2
100
AcDbLine
 10
4934.715708410207
 20
249.8126430435648
 30
0.0
 11
4934.982690540275
 21
249.5456609134968
 31
0.0
  0
LINE
  5
1C4D9
330
1B896
100
AcDbEntity
  8
AM_2
100
AcDbLine
 10
4934.401399445971
 20
249.8126430435648
 30
0.0
 11
4934.776591234597
 21
249.4374512549388
 31
0.0
  0
LINE
  5
1C4DA
330
1B896
100
AcDbEntity
  8
AM_2
100
AcDbLine
 10
4934.253183413943
 20
249.646550111355
 30
0.0
 11
4934.570491928917
 21
249.329241596381
 31
0.0
  0
LINE
  5
1C4DB
330
1B896
100
AcDbEntity
  8
AM_2
100
AcDbLine
 10
4934.253183413943
 20
249.3322411471178
 30
0.0
 11
4934.364392623236
 21
249.2210319378228
 31
0.0
  0
LINE
  5
1C4DC
330
1B896
100
AcDbEntity
  8
AM_2
100
AcDbLine
 10
4932.201236696307
 20
249.8126430435648
 30
0.0
 11
4932.213963338898
 21
249.7999164009748
 31
0.0
  0
LINE
  5
1C4DD
330
1B896
100
AcDbEntity
  8
AM_2
100
AcDbLine
 10
4931.88692773207
 20
249.8126430435648
 30
0.0
 11
4931.976747280767
 21
249.7228234948688
 31
0.0
  0
LINE
  5
1C4DE
330
1B896
100
AcDbEntity
  8
AM_2
100
AcDbLine
 10
4931.572618767832
 20
249.8126430435648
 30
0.0
 11
4931.739531222635
 21
249.6457305887629
 31
0.0
  0
LINE
  5
1C4DF
330
1B896
100
AcDbEntity
  8
AM_2
100
AcDbLine
 10
4931.258309803595
 20
249.8126430435648
 30
0.0
 11
4931.502315164504
 21
249.5686376826569
 31
0.0
  0
LINE
  5
1C4E0
330
1B896
100
AcDbEntity
  8
AM_2
100
AcDbLine
 10
4930.944000839359
 20
249.8126430435648
 30
0.0
 11
4931.265099106371
 21
249.4915447765519
 31
0.0
  0
LINE
  5
1C4E1
330
1B896
100
AcDbEntity
  8
AM_2
100
AcDbLine
 10
4930.629691875122
 20
249.8126430435648
 30
0.0
 11
4931.027883048241
 21
249.4144518704458
 31
0.0
  0
LINE
  5
1C4E2
330
1B896
100
AcDbEntity
  8
AM_2
100
AcDbLine
 10
4930.315382910883
 20
249.8126430435648
 30
0.0
 11
4930.790666990108
 21
249.3373589643399
 31
0.0
  0
LINE
  5
1C4E3
330
1B896
100
AcDbEntity
  8
AM_2
100
AcDbLine
 10
4930.253063413942
 20
249.5606535762689
 30
0.0
 11
4930.553450931977
 21
249.2602660582349
 31
0.0
  0
LINE
  5
1C4E4
330
1B896
100
AcDbEntity
  8
AM_2
100
AcDbLine
 10
4930.253063413942
 20
249.2463446120318
 30
0.0
 11
4930.316234873845
 21
249.1831731521289
 31
0.0
  0
LINE
  5
1C4E5
330
1B896
100
AcDbEntity
  8
AM_2
100
AcDbLine
 10
4930.253063413942
 20
240.1790214750969
 30
0.0
 11
4930.316234873845
 21
240.242192935
 31
0.0
  0
LINE
  5
1C4E6
330
1B896
100
AcDbEntity
  8
AM_2
100
AcDbLine
 10
4930.253063413942
 20
239.86471251086
 30
0.0
 11
4930.553450931977
 21
240.1651000288937
 31
0.0
  0
LINE
  5
1C4E7
330
1B896
100
AcDbEntity
  8
AM_2
100
AcDbLine
 10
4930.315382910883
 20
239.612723043564
 30
0.0
 11
4930.790666990108
 21
240.0880071227879
 31
0.0
  0
LINE
  5
1C4E8
330
1B896
100
AcDbEntity
  8
AM_2
100
AcDbLine
 10
4930.629691875122
 20
239.612723043564
 30
0.0
 11
4931.027883048241
 21
240.0109142166829
 31
0.0
  0
LINE
  5
1C4E9
330
1B896
100
AcDbEntity
  8
AM_2
100
AcDbLine
 10
4930.944000839359
 20
239.612723043564
 30
0.0
 11
4931.265099106371
 21
239.933821310577
 31
0.0
  0
LINE
  5
1C4EA
330
1B896
100
AcDbEntity
  8
AM_2
100
AcDbLine
 10
4931.258309803595
 20
239.612723043564
 30
0.0
 11
4931.502315164504
 21
239.8567284044708
 31
0.0
  0
LINE
  5
1C4EB
330
1B896
100
AcDbEntity
  8
AM_2
100
AcDbLine
 10
4931.572618767832
 20
239.612723043564
 30
0.0
 11
4931.739531222635
 21
239.7796354983649
 31
0.0
  0
LINE
  5
1C4EC
330
1B896
100
AcDbEntity
  8
AM_2
100
AcDbLine
 10
4931.886927732072
 20
239.612723043564
 30
0.0
 11
4931.976747280767
 21
239.7025425922599
 31
0.0
  0
LINE
  5
1C4ED
330
1B896
100
AcDbEntity
  8
AM_2
100
AcDbLine
 10
4932.201236696307
 20
239.612723043564
 30
0.0
 11
4932.2139633389
 21
239.625449686154
 31
0.0
  0
LINE
  5
1C4EE
330
1B896
100
AcDbEntity
  8
AM_2
100
AcDbLine
 10
4934.253183413943
 20
240.0931249400109
 30
0.0
 11
4934.364392623236
 21
240.204334149306
 31
0.0
  0
LINE
  5
1C4EF
330
1B896
100
AcDbEntity
  8
AM_2
100
AcDbLine
 10
4934.253183413943
 20
239.7788159757739
 30
0.0
 11
4934.570491928917
 21
240.0961244907479
 31
0.0
  0
LINE
  5
1C4F0
330
1B896
100
AcDbEntity
  8
AM_2
100
AcDbLine
 10
4934.401399445971
 20
239.612723043564
 30
0.0
 11
4934.776591234597
 21
239.9879148321899
 31
0.0
  0
LINE
  5
1C4F1
330
1B896
100
AcDbEntity
  8
AM_2
100
AcDbLine
 10
4934.715708410207
 20
239.612723043564
 30
0.0
 11
4934.982690540275
 21
239.8797051736317
 31
0.0
  0
LINE
  5
1C4F2
330
1B896
100
AcDbEntity
  8
AM_2
100
AcDbLine
 10
4935.030017374446
 20
239.612723043564
 30
0.0
 11
4935.188789845955
 21
239.7714955150738
 31
0.0
  0
LINE
  5
1C4F3
330
1B896
100
AcDbEntity
  8
AM_2
100
AcDbLine
 10
4935.344326338683
 20
239.612723043564
 30
0.0
 11
4935.394889151634
 21
239.663285856516
 31
0.0
  0
LINE
  5
1C4F4
330
1B896
100
AcDbEntity
  8
AM_2
100
AcDbLine
 10
4932.253123413943
 20
239.978918725435
 30
0.0
 11
4932.467316928247
 21
240.1931122397399
 31
0.0
  0
LINE
  5
1C4F5
330
1B896
100
AcDbEntity
  8
AM_2
100
AcDbLine
 10
4932.253123413943
 20
239.6646097611978
 30
0.0
 11
4932.704532986377
 21
240.1160193336338
 31
0.0
  0
LINE
  5
1C4F6
330
1B896
100
AcDbEntity
  8
AM_2
100
AcDbLine
 10
4932.515545660546
 20
239.612723043564
 30
0.0
 11
4932.94174904451
 21
240.038926427529
 31
0.0
  0
LINE
  5
1C4F7
330
1B896
100
AcDbEntity
  8
AM_2
100
AcDbLine
 10
4932.829854624782
 20
239.612723043564
 30
0.0
 11
4933.178965102641
 21
239.9618335214228
 31
0.0
  0
LINE
  5
1C4F8
330
1B896
100
AcDbEntity
  8
AM_2
100
AcDbLine
 10
4933.14416358902
 20
239.612723043564
 30
0.0
 11
4933.416181160773
 21
239.8847406153169
 31
0.0
  0
LINE
  5
1C4F9
330
1B896
100
AcDbEntity
  8
AM_2
100
AcDbLine
 10
4933.458472553258
 20
239.612723043564
 30
0.0
 11
4933.653397218907
 21
239.8076477092108
 31
0.0
  0
LINE
  5
1C4FA
330
1B896
100
AcDbEntity
  8
AM_2
100
AcDbLine
 10
4933.772781517497
 20
239.612723043564
 30
0.0
 11
4933.890613277037
 21
239.7305548031058
 31
0.0
  0
LINE
  5
1C4FB
330
1B896
100
AcDbEntity
  8
AM_2
100
AcDbLine
 10
4934.087090481733
 20
239.612723043564
 30
0.0
 11
4934.127829335167
 21
239.6534618969999
 31
0.0
  0
LINE
  5
1C4FC
330
1B896
100
AcDbEntity
  8
AM_2
100
AcDbLine
 10
4930.253063413942
 20
239.612723043564
 30
0.0
 11
4935.49119257576
 21
239.612723043564
 31
0.0
  0
LINE
  5
1C4FD
330
1B896
100
AcDbEntity
  8
AM_2
100
AcDbLine
 10
4930.253063413942
 20
249.8126430435648
 30
0.0
 11
4935.49119257576
 21
249.8126430435648
 31
0.0
  0
LINE
  5
1C4FE
330
1B896
100
AcDbEntity
  8
OS
 62
     2
100
AcDbLine
 10
4937.253183413943
 20
345.4768776185277
 30
0.0
 11
4937.253183413943
 21
276.7126830435638
 31
0.0
  0
LINE
  5
1C4FF
330
1B896
100
AcDbEntity
  8
OS
 62
     2
100
AcDbLine
 10
4944.253183413943
 20
276.7126830435638
 30
0.0
 11
4944.253183413943
 21
345.4768776185277
 31
0.0
  0
LINE
  5
1C500
330
1B896
100
AcDbEntity
  8
OS
 62
     2
100
AcDbLine
 10
4956.753183413943
 20
276.7126830435638
 30
0.0
 11
4956.753183413943
 21
345.4768776185277
 31
0.0
  0
LINE
  5
1C501
330
1B896
100
AcDbEntity
  8
AM_0
100
AcDbLine
 10
4956.753183413943
 20
201.7126830435638
 30
0.0
 11
4956.753183413943
 21
276.7126830435638
 31
0.0
  0
LINE
  5
1C502
330
1B896
100
AcDbEntity
  8
AM_0
100
AcDbLine
 10
4931.253183413943
 20
276.7126830435638
 30
0.0
 11
4929.253183413942
 21
274.7126830435638
 31
0.0
  0
LINE
  5
1C503
330
1B896
100
AcDbEntity
  8
AM_0
100
AcDbLine
 10
4667.753164797042
 20
274.7126830435638
 30
0.0
 11
4665.753164797043
 21
276.7126830435638
 31
0.0
  0
LINE
  5
1C504
330
1B896
100
AcDbEntity
  8
OS
 62
     2
100
AcDbLine
 10
4640.253164797043
 20
306.7126830435638
 30
0.0
 11
4640.253164797043
 21
276.7126830435638
 31
0.0
  0
LINE
  5
1C505
330
1B896
100
AcDbEntity
  8
OS
 62
     2
100
AcDbLine
 10
4652.753164797043
 20
306.7126830435638
 30
0.0
 11
4652.753164797043
 21
276.7126830435638
 31
0.0
  0
LINE
  5
1C506
330
1B896
100
AcDbEntity
  8
AM_0
100
AcDbLine
 10
4640.253164797043
 20
201.7126830435638
 30
0.0
 11
4640.253164797043
 21
276.7126830435638
 31
0.0
  0
LINE
  5
1C507
330
1B896
100
AcDbEntity
  8
AM_0
100
AcDbLine
 10
4931.253183413943
 20
276.7126830435638
 30
0.0
 11
4956.753183413943
 21
276.7126830435638
 31
0.0
  0
LINE
  5
1C508
330
1B896
100
AcDbEntity
  8
AM_0
100
AcDbLine
 10
4665.753164797043
 20
276.7126830435638
 30
0.0
 11
4640.253164797043
 21
276.7126830435638
 31
0.0
  0
LINE
  5
1C509
330
1B896
100
AcDbEntity
  8
AM_0
100
AcDbLine
 10
4665.753164797043
 20
201.7126830435638
 30
0.0
 11
4640.253164797043
 21
201.7126830435638
 31
0.0
  0
CIRCLE
  5
1C50A
330
1B896
100
AcDbEntity
  8
AM_2
  6
DASHED1
100
AcDbCircle
 10
4917.753183413942
 20
174.7126830435638
 30
0.0
 40
3.799999999999998
  0
LINE
  5
1C50B
330
1B896
100
AcDbEntity
  8
AM_2
100
AcDbLine
 10
4929.831259494381
 20
177.5217876360218
 30
0.0
 11
4927.152694772913
 21
192.7126830435618
 31
0.0
  0
ARC
  5
1C50C
330
1B896
100
AcDbEntity
  8
AM_2
100
AcDbCircle
 10
4919.983181964262
 20
175.7853058593518
 30
0.0
 40
10.0
100
AcDbArc
 50
315.0000000000114
 51
10.00000000000389
  0
ARC
  5
1C50D
330
1B896
100
AcDbEntity
  8
AM_2
100
AcDbCircle
 10
4921.895840522712
 20
169.2126830435707
 30
0.0
 40
4.0
100
AcDbArc
 50
269.9999999998436
 51
315.0000000000138
  0
LINE
  5
1C50E
330
1B896
100
AcDbEntity
  8
AM_2
100
AcDbLine
 10
4927.054249776122
 20
168.7142380474878
 30
0.0
 11
4924.724267647462
 21
166.3842559188248
 31
0.0
  0
ARC
  5
1C50F
330
1B896
100
AcDbEntity
  8
AM_2
100
AcDbCircle
 10
4914.497157040372
 20
169.2126830435938
 30
0.0
 40
4.0
100
AcDbArc
 50
205.6917843361737
 51
269.9999999998957
  0
LINE
  5
1C510
330
1B896
100
AcDbEntity
  8
AM_2
100
AcDbLine
 10
4921.895840522712
 20
165.2126830435707
 30
0.0
 11
4914.497157040372
 21
165.2126830435888
 31
0.0
  0
ARC
  5
1C511
330
1B896
100
AcDbEntity
  8
AM_2
100
AcDbCircle
 10
4900.343492157932
 20
191.7126830435607
 30
0.0
 40
1.0
100
AcDbArc
 50
90.00000000005213
 51
205.6917843359692
  0
LINE
  5
1C512
330
1B896
100
AcDbEntity
  8
AM_2
100
AcDbLine
 10
4899.442352963331
 20
191.2791531692138
 30
0.0
 11
4910.892600261972
 21
167.4785635461948
 31
0.0
  0
LINE
  5
1C513
330
1B896
100
AcDbEntity
  8
________
100
AcDbLine
 10
4917.753183413942
 20
183.3376501316818
 30
0.0
 11
4917.753183413942
 21
167.2975509004538
 31
0.0
  0
LINE
  5
1C514
330
1B896
100
AcDbEntity
  8
________
100
AcDbLine
 10
4911.870714717062
 20
174.7126830435638
 30
0.0
 11
4923.702156229452
 21
174.7126830435638
 31
0.0
  0
LINE
  5
1C515
330
1B896
100
AcDbEntity
  8
AM_0
100
AcDbLine
 10
4933.253183413943
 20
192.7126830435638
 30
0.0
 11
4933.253183413943
 21
198.7126830435638
 31
0.0
  0
LINE
  5
1C516
330
1B896
100
AcDbEntity
  8
AM_0
100
AcDbLine
 10
4933.253183413943
 20
198.7126830435638
 30
0.0
 11
4925.253164797043
 21
198.7126830435638
 31
0.0
  0
LINE
  5
1C517
330
1B896
100
AcDbEntity
  8
AM_0
100
AcDbLine
 10
4925.253164797043
 20
232.7126830435638
 30
0.0
 11
4925.253164797043
 21
198.7126830435638
 31
0.0
  0
LINE
  5
1C518
330
1B896
100
AcDbEntity
  8
AM_0
100
AcDbLine
 10
4671.753164797042
 20
198.7126830435638
 30
0.0
 11
4671.753164797042
 21
232.7126830435638
 31
0.0
  0
LINE
  5
1C519
330
1B896
100
AcDbEntity
  8
AM_0
100
AcDbLine
 10
4671.753164797042
 20
232.7126830435638
 30
0.0
 11
4797.003164797042
 21
232.7126830435638
 31
0.0
  0
LINE
  5
1C51A
330
1B896
100
AcDbEntity
  8
AM_2
100
AcDbLine
 10
4664.553164797042
 20
200.7126830435638
 30
0.0
 11
4664.553164797042
 21
199.2126830435638
 31
0.0
  0
LINE
  5
1C51B
330
1B896
100
AcDbEntity
  8
AM_2
100
AcDbLine
 10
4670.953164797041
 20
199.2126830435638
 30
0.0
 11
4670.953164797041
 21
200.7126830435638
 31
0.0
  0
LINE
  5
1C51C
330
1B896
100
AcDbEntity
  8
AM_2
100
AcDbLine
 10
4664.553164797042
 20
200.7126830435638
 30
0.0
 11
4670.953164797041
 21
200.7126830435638
 31
0.0
  0
LINE
  5
1C51D
330
1B896
100
AcDbEntity
  8
AM_2
100
AcDbLine
 10
4663.753164797042
 20
199.2126830435638
 30
0.0
 11
4663.753164797042
 21
198.7126830435638
 31
0.0
  0
LINE
  5
1C51E
330
1B896
100
AcDbEntity
  8
AM_0
100
AcDbLine
 10
4663.753164797042
 20
192.7126830435638
 30
0.0
 11
4797.003164797042
 21
192.7126830435638
 31
0.0
  0
LINE
  5
1C51F
330
1B896
100
AcDbEntity
  8
AM_0
100
AcDbLine
 10
4663.753164797042
 20
192.7126830435638
 30
0.0
 11
4663.753164797042
 21
198.7126830435638
 31
0.0
  0
LINE
  5
1C520
330
1B896
100
AcDbEntity
  8
AM_0
100
AcDbLine
 10
4663.753164797042
 20
198.7126830435638
 30
0.0
 11
4671.753164797042
 21
198.7126830435638
 31
0.0
  0
LINE
  5
1C521
330
1B896
100
AcDbEntity
  8
AM_0
100
AcDbLine
 10
4933.253183413943
 20
192.7126830435638
 30
0.0
 11
4797.003164797041
 21
192.7126830435638
 31
0.0
  0
LINE
  5
1C522
330
1B896
100
AcDbEntity
  8
AM_0
100
AcDbLine
 10
4925.253164797043
 20
232.7126830435638
 30
0.0
 11
4797.003164797041
 21
232.7126830435638
 31
0.0
  0
LINE
  5
1C523
330
1B896
100
AcDbEntity
  8
AM_0
100
AcDbLine
 10
4925.253164797043
 20
232.7126830435638
 30
0.0
 11
4925.253164797043
 21
198.7126830435638
 31
0.0
  0
LINE
  5
1C524
330
1B896
100
AcDbEntity
  8
AM_2
100
AcDbLine
 10
4663.753164797042
 20
199.2126830435638
 30
0.0
 11
4671.753164797042
 21
199.2126830435638
 31
0.0
  0
LINE
  5
1C525
330
1B896
100
AcDbEntity
  8
OS
 62
     2
100
AcDbLine
 10
4956.753183413943
 20
201.7126830435638
 30
0.0
 11
4956.753183413943
 21
74.66655124097127
 31
0.0
  0
LINE
  5
1C526
330
1B896
100
AcDbEntity
  8
OS
 62
     2
100
AcDbLine
 10
4652.753164797043
 20
201.7126830435638
 30
0.0
 11
4652.753164797043
 21
176.7126830435638
 31
0.0
  0
LINE
  5
1C527
330
1B896
100
AcDbEntity
  8
OS
 62
     2
100
AcDbLine
 10
4640.253164797043
 20
201.7126830435638
 30
0.0
 11
4640.253164797043
 21
176.7126830435638
 31
0.0
  0
LINE
  5
1C528
330
1B896
100
AcDbEntity
  8
AM_0
100
AcDbLine
 10
4931.253183413943
 20
201.7126830435638
 30
0.0
 11
4929.253183413942
 21
203.7126830435638
 31
0.0
  0
LINE
  5
1C529
330
1B896
100
AcDbEntity
  8
AM_0
100
AcDbLine
 10
4931.253183413943
 20
201.7126830435638
 30
0.0
 11
4956.753183413943
 21
201.7126830435638
 31
0.0
  0
LINE
  5
1C52A
330
1B896
100
AcDbEntity
  8
AM_0
100
AcDbLine
 10
4667.753164797042
 20
203.7126830435638
 30
0.0
 11
4665.753164797043
 21
201.7126830435638
 31
0.0
  0
LINE
  5
1C52B
330
1B896
100
AcDbEntity
  8
OS
 62
     2
100
AcDbLine
 10
4944.253183413943
 20
102.838671016331
 30
0.0
 11
4944.253183413943
 21
74.66655124097127
 31
0.0
  0
LINE
  5
1C52C
330
1B896
100
AcDbEntity
  8
OS
 62
     2
100
AcDbLine
 10
4956.753183413943
 20
189.2126830435638
 30
0.0
 11
5001.753183413942
 21
189.2126830435638
 31
0.0
  0
LINE
  5
1C52D
330
1B896
100
AcDbEntity
  8
OS
 62
     2
100
AcDbLine
 10
4956.753183413943
 20
294.2126830435638
 30
0.0
 11
5001.753183413942
 21
294.2126830435638
 31
0.0
  0
LINE
  5
1C52E
330
1B896
100
AcDbEntity
  8
OS
 62
     2
100
AcDbLine
 10
4652.753164797043
 20
306.7126830435638
 30
0.0
 11
4595.753164797042
 21
306.7126830435638
 31
0.0
  0
LINE
  5
1C52F
330
1B896
100
AcDbEntity
  8
OS
 62
     2
100
AcDbLine
 10
4640.253164797043
 20
294.2126830435638
 30
0.0
 11
4595.253164797042
 21
294.2126830435638
 31
0.0
  0
LINE
  5
1C530
330
1B896
100
AcDbEntity
  8
OS
 62
     2
100
AcDbLine
 10
4652.753164797043
 20
176.7126830435638
 30
0.0
 11
4595.753164797042
 21
176.7126830435638
 31
0.0
  0
LINE
  5
1C531
330
1B896
100
AcDbEntity
  8
OS
 62
     2
100
AcDbLine
 10
4447.053589289728
 20
382.0536406468518
 30
0.0
 11
4447.053589289728
 21
436.2358802381206
 31
0.0
  0
LINE
  5
1C532
330
1B896
100
AcDbEntity
  8
OS
 62
     2
100
AcDbLine
 10
4422.053589289728
 20
379.0536407418519
 30
0.0
 11
4422.053589289728
 21
382.0536406468518
 31
0.0
  0
LINE
  5
1C533
330
1B896
100
AcDbEntity
  8
OS
 62
     2
100
AcDbLine
 10
4422.053589289728
 20
103.0536406468518
 30
0.0
 11
4422.053589289728
 21
93.55364064685181
 31
0.0
  0
TEXT
  5
1C534
330
1B896
100
AcDbEntity
  8
AM_5
100
AcDbText
 10
4593.279187236125
 20
146.3416425989574
 30
0.0
 40
6.0
  1
巾木
 41
0.9
100
AcDbText
  0
TEXT
  5
1C535
330
1B896
100
AcDbEntity
  8
MJ
100
AcDbText
 10
4873.069669451095
 20
-1.507428036539522
 30
0.0
 40
7.0
  1
枠見込み75ｍｍ
 41
0.9
100
AcDbText
  0
TEXT
  5
1C536
330
1B896
100
AcDbEntity
  8
MJ
100
AcDbText
 10
4873.069669451095
 20
18.49257196346053
 30
0.0
 40
7.0
  1
シンプル・スリム枠
 41
0.9
100
AcDbText
  0
TEXT
  5
1C537
330
1B896
100
AcDbEntity
  8
MJ
100
AcDbText
 10
4873.069669451095
 20
8.492571963460534
 30
0.0
 40
7.0
  1
室内ドア　OHドア　2方枠
 41
0.9
100
AcDbText
  0
TEXT
  5
1C538
330
1B896
100
AcDbEntity
  8
MJ
100
AcDbText
 10
4873.069669451095
 20
-11.50742803653952
 30
0.0
 40
7.0
  1
たて横断面
 41
0.9
100
AcDbText
  0
TEXT
  5
1C539
330
1B896
100
AcDbEntity
  8
MJ
100
AcDbText
 10
4873.069669451095
 20
-21.50742803653952
 30
0.0
 40
7.0
  1
ssd02a02
 41
0.9
100
AcDbText
  0
LINE
  5
1C53A
330
1B896
100
AcDbEntity
  8
AM_5
100
AcDbLine
 10
4929.253183413942
 20
104.7978398922461
 30
0.0
 11
4667.753164797042
 21
104.7978398922461
 31
0.0
1001
ACAD_DSTYLE_DIMINSPECT
1070
   393
1070
     0
1001
ACAD
1000
DSTYLE
1002
{
1070
   173
1070
     1
1070
   140
1040
5.0
1070
   174
1070
     1
1070
    72
1070
     0
1070
    71
1070
     0
1002
}
  0
LINE
  5
1C53B
330
1B896
100
AcDbEntity
  8
AM_5
100
AcDbLine
 10
4503.952579713796
 20
382.0536406468518
 30
0.0
 11
4503.952579713796
 21
93.55364064685181
 31
0.0
1001
ACAD_DSTYLE_DIMINSPECT
1070
   393
1070
     0
1001
ACAD
1000
DSTYLE
1002
{
1070
   140
1040
5.0
1070
   173
1070
     1
1070
    72
1070
     0
1070
    71
1070
     0
1002
}
  0
ARC
  5
1C53C
330
1B896
100
AcDbEntity
  8
AM_2
  6
CONTINUOUS
100
AcDbCircle
 10
4689.078695749087
 20
193.170095423109
 30
0.0
 40
33.81783432542852
100
AcDbArc
 50
120.8184444461644
 51
129.0944134323167
  0
ARC
  5
1C53D
330
1B896
100
AcDbEntity
  8
TS
100
AcDbCircle
 10
4689.078695749087
 20
193.170095423109
 30
0.0
 40
33.81783432542852
100
AcDbArc
 50
130.1945652099168
 51
148.22920978355
  0
LINE
  5
1C53E
330
1B896
100
AcDbEntity
  8
AM_2
  6
CONTINUOUS
100
AcDbLine
 10
4671.753164797042
 20
210.2126830435639
 30
0.0
 11
4667.753164797042
 21
210.2126830435639
 31
0.0
  0
LINE
  5
1C53F
330
1B896
100
AcDbEntity
  8
TS
100
AcDbLine
 10
4667.253164797043
 20
210.2126830435639
 30
0.0
 11
4660.753164797042
 21
210.2126830435639
 31
0.0
  0
ARC
  5
1C540
330
1B896
100
AcDbEntity
  8
TS
100
AcDbCircle
 10
4660.753164797042
 20
210.7126830435639
 30
0.0
 40
0.5
100
AcDbArc
 50
148.2292097835195
 51
270.0
  0
LINE
  5
1C541
330
1B896
100
AcDbEntity
  8
AM_5
100
AcDbLine
 10
4679.644611911002
 20
122.3936058994298
 30
0.0
 11
4671.358897625288
 21
122.3936058994298
 31
0.0
1001
ACAD_DSTYLE_DIMINSPECT
1070
   393
1070
     0
1001
ACAD
1000
DSTYLE
1002
{
1070
   173
1070
     1
1002
}
  0
LINE
  5
1C542
330
1B896
100
AcDbEntity
  8
AM_5
100
AcDbLine
 10
4671.358897625288
 20
122.3936058994298
 30
0.0
 11
4665.753164797043
 21
132.797839892246
 31
0.0
1001
ACAD_DSTYLE_DIMINSPECT
1070
   393
1070
     0
1001
ACAD
1000
DSTYLE
1002
{
1070
   173
1070
     1
1002
}
  0
LINE
  5
1C543
330
1B896
100
AcDbEntity
  8
AM_5
100
AcDbLine
 10
4667.753164797042
 20
201.7126830435638
 30
0.0
 11
4667.753164797042
 21
130.797839892246
 31
0.0
1001
ACAD_DSTYLE_DIMINSPECT
1070
   393
1070
     0
1001
ACAD
1000
DSTYLE
1002
{
1070
   173
1070
     1
1002
}
  0
LINE
  5
1C544
330
1B896
100
AcDbEntity
  8
AM_5
100
AcDbLine
 10
4663.753164797042
 20
190.7126830435638
 30
0.0
 11
4663.753164797042
 21
130.797839892246
 31
0.0
1001
ACAD_DSTYLE_DIMINSPECT
1070
   393
1070
     0
1001
ACAD
1000
DSTYLE
1002
{
1070
   173
1070
     1
1002
}
  0
LINE
  5
1C545
330
1B896
100
AcDbEntity
  8
AM_5
100
AcDbLine
 10
4667.753164797042
 20
132.797839892246
 30
0.0
 11
4663.753164797042
 21
132.797839892246
 31
0.0
1001
ACAD_DSTYLE_DIMINSPECT
1070
   393
1070
     0
1001
ACAD
1000
DSTYLE
1002
{
1070
   173
1070
     1
1002
}
  0
LINE
  5
1C546
330
1B896
100
AcDbEntity
  8
AM_5
100
AcDbLine
 10
4916.724567125658
 20
122.1057959314873
 30
0.0
 11
4925.010281411371
 21
122.1057959314873
 31
0.0
1001
ACAD_DSTYLE_DIMINSPECT
1070
   393
1070
     0
1001
ACAD
1000
DSTYLE
1002
{
1070
   173
1070
     1
1002
}
  0
LINE
  5
1C547
330
1B896
100
AcDbEntity
  8
AM_5
100
AcDbLine
 10
4925.010281411371
 20
122.1057959314873
 30
0.0
 11
4931.253183413943
 21
132.797839892246
 31
0.0
1001
ACAD_DSTYLE_DIMINSPECT
1070
   393
1070
     0
1001
ACAD
1000
DSTYLE
1002
{
1070
   173
1070
     1
1002
}
  0
LINE
  5
1C548
330
1B896
100
AcDbEntity
  8
AM_5
100
AcDbLine
 10
4929.253183413942
 20
201.7126830435638
 30
0.0
 11
4929.253183413942
 21
130.797839892246
 31
0.0
1001
ACAD_DSTYLE_DIMINSPECT
1070
   393
1070
     0
1001
ACAD
1000
DSTYLE
1002
{
1070
   173
1070
     1
1002
}
  0
LINE
  5
1C549
330
1B896
100
AcDbEntity
  8
AM_5
100
AcDbLine
 10
4933.253183413943
 20
190.7126830435638
 30
0.0
 11
4933.253183413943
 21
130.797839892246
 31
0.0
1001
ACAD_DSTYLE_DIMINSPECT
1070
   393
1070
     0
1001
ACAD
1000
DSTYLE
1002
{
1070
   173
1070
     1
1002
}
  0
LINE
  5
1C54A
330
1B896
100
AcDbEntity
  8
AM_5
100
AcDbLine
 10
4929.253183413942
 20
132.797839892246
 30
0.0
 11
4933.253183413943
 21
132.797839892246
 31
0.0
1001
ACAD_DSTYLE_DIMINSPECT
1070
   393
1070
     0
1001
ACAD
1000
DSTYLE
1002
{
1070
   173
1070
     1
1002
}
  0
TEXT
  5
1C54B
330
1B896
100
AcDbEntity
  8
AM_5
100
AcDbText
 10
4501.952579713796
 20
234.4703073135186
 30
0.0
 40
10.0
  1
H
 50
90.0
  7
SIMPLEX
100
AcDbText
1001
ACAD_DSTYLE_DIMINSPECT
1070
   393
1070
     0
1001
ACAD
1000
DSTYLE
1002
{
1070
   140
1040
5.0
1070
   173
1070
     1
1070
    72
1070
     0
1070
    71
1070
     0
1002
}
  0
TEXT
  5
1C54C
330
1B896
100
AcDbEntity
  8
AM_5
100
AcDbText
 10
4793.741269343587
 20
106.7978398922461
 30
0.0
 40
10.0
  1
W
  7
SIMPLEX
100
AcDbText
1001
ACAD_DSTYLE_DIMINSPECT
1070
   393
1070
     0
1001
ACAD
1000
DSTYLE
1002
{
1070
   173
1070
     1
1070
   140
1040
5.0
1070
   174
1070
     1
1070
    72
1070
     0
1070
    71
1070
     0
1002
}
  0
LINE
  5
1C54D
330
1B896
100
AcDbEntity
  8
AM_5
100
AcDbLine
 10
4922.453179870294
 20
108.8778391121518
 30
0.0
 11
4922.453179870294
 21
100.7178383121517
 31
0.0
  0
LINE
  5
1C54E
330
1B896
100
AcDbEntity
  8
AM_5
100
AcDbLine
 10
4922.653179770294
 20
108.7578392121517
 30
0.0
 11
4922.653179770294
 21
100.8378382121518
 31
0.0
  0
LINE
  5
1C54F
330
1B896
100
AcDbEntity
  8
AM_5
100
AcDbLine
 10
4922.853179570295
 20
108.6378393121518
 30
0.0
 11
4922.853179570295
 21
100.9578380121517
 31
0.0
  0
LINE
  5
1C550
330
1B896
100
AcDbEntity
  8
AM_5
100
AcDbLine
 10
4923.053179370294
 20
108.5178404121518
 30
0.0
 11
4923.053179370294
 21
101.0778379121518
 31
0.0
  0
LINE
  5
1C551
330
1B896
100
AcDbEntity
  8
AM_5
100
AcDbLine
 10
4923.253179170293
 20
108.3978405121518
 30
0.0
 11
4923.253179170293
 21
101.1978378121518
 31
0.0
  0
LINE
  5
1C552
330
1B896
100
AcDbEntity
  8
AM_5
100
AcDbLine
 10
4929.253183150446
 20
104.7978400503438
 30
0.0
 11
4919.253183070294
 21
110.7978358121517
 31
0.0
  0
LINE
  5
1C553
330
1B896
100
AcDbEntity
  8
AM_5
100
AcDbLine
 10
4929.053170760293
 20
104.9178476221518
 30
0.0
 11
4929.053170760293
 21
104.6778326021517
 31
0.0
  0
LINE
  5
1C554
330
1B896
100
AcDbEntity
  8
AM_5
100
AcDbLine
 10
4929.253187151267
 20
104.7978421346411
 30
0.0
 11
4919.253183370294
 21
98.79784021215181
 31
0.0
  0
LINE
  5
1C555
330
1B896
100
AcDbEntity
  8
AM_5
100
AcDbLine
 10
4928.853173810294
 20
105.0378427421518
 30
0.0
 11
4928.853173810294
 21
104.5578346221517
 31
0.0
  0
LINE
  5
1C556
330
1B896
100
AcDbEntity
  8
AM_5
100
AcDbLine
 10
4928.453174200295
 20
105.2778453721518
 30
0.0
 11
4928.453174200295
 21
104.3178348521518
 31
0.0
  0
LINE
  5
1C557
330
1B896
100
AcDbEntity
  8
AM_5
100
AcDbLine
 10
4928.653174010294
 20
105.1578426321518
 30
0.0
 11
4928.653174010294
 21
104.4378347321518
 31
0.0
  0
LINE
  5
1C558
330
1B896
100
AcDbEntity
  8
AM_5
100
AcDbLine
 10
4928.253174370293
 20
105.3978452621518
 30
0.0
 11
4928.253174370293
 21
104.1978349621518
 31
0.0
  0
LINE
  5
1C559
330
1B896
100
AcDbEntity
  8
AM_5
100
AcDbLine
 10
4928.053174570294
 20
105.5178451521518
 30
0.0
 11
4928.053174570294
 21
104.0778350721517
 31
0.0
  0
LINE
  5
1C55A
330
1B896
100
AcDbEntity
  8
AM_5
100
AcDbLine
 10
4927.853174770294
 20
105.6378440821518
 30
0.0
 11
4927.853174770294
 21
103.9578351921518
 31
0.0
  0
LINE
  5
1C55B
330
1B896
100
AcDbEntity
  8
AM_5
100
AcDbLine
 10
4927.653174970294
 20
105.7578439621519
 30
0.0
 11
4927.653174970294
 21
103.8378353021518
 31
0.0
  0
LINE
  5
1C55C
330
1B896
100
AcDbEntity
  8
AM_5
100
AcDbLine
 10
4927.453175170295
 20
105.8778438121519
 30
0.0
 11
4927.453175170295
 21
103.7178354121518
 31
0.0
  0
LINE
  5
1C55D
330
1B896
100
AcDbEntity
  8
AM_5
100
AcDbLine
 10
4927.053175570294
 20
106.1178436121518
 30
0.0
 11
4927.053175570294
 21
103.4778356121518
 31
0.0
  0
LINE
  5
1C55E
330
1B896
100
AcDbEntity
  8
AM_5
100
AcDbLine
 10
4927.253175370293
 20
105.9978437121517
 30
0.0
 11
4927.253175370293
 21
103.5978355121517
 31
0.0
  0
LINE
  5
1C55F
330
1B896
100
AcDbEntity
  8
AM_5
100
AcDbLine
 10
4926.853175770297
 20
106.2378435121519
 30
0.0
 11
4926.853175770297
 21
103.3578358121517
 31
0.0
  0
LINE
  5
1C560
330
1B896
100
AcDbEntity
  8
AM_5
100
AcDbLine
 10
4926.653175870296
 20
106.3578434121517
 30
0.0
 11
4926.653175870296
 21
103.2378359121519
 31
0.0
  0
LINE
  5
1C561
330
1B896
100
AcDbEntity
  8
AM_5
100
AcDbLine
 10
4926.453176070293
 20
106.4778433121518
 30
0.0
 11
4926.453176070293
 21
103.1178360121518
 31
0.0
  0
LINE
  5
1C562
330
1B896
100
AcDbEntity
  8
AM_5
100
AcDbLine
 10
4926.253176270295
 20
106.5978432121518
 30
0.0
 11
4926.253176270295
 21
102.9978361121518
 31
0.0
  0
LINE
  5
1C563
330
1B896
100
AcDbEntity
  8
AM_5
100
AcDbLine
 10
4926.053176470293
 20
106.7178430121518
 30
0.0
 11
4926.053176470293
 21
102.8778362121518
 31
0.0
  0
LINE
  5
1C564
330
1B896
100
AcDbEntity
  8
AM_5
100
AcDbLine
 10
4925.853176670294
 20
106.8378429121519
 30
0.0
 11
4925.853176670294
 21
102.7578363121518
 31
0.0
  0
LINE
  5
1C565
330
1B896
100
AcDbEntity
  8
AM_5
100
AcDbLine
 10
4925.653176870295
 20
106.9578428121517
 30
0.0
 11
4925.653176870294
 21
102.6378364121518
 31
0.0
  0
LINE
  5
1C566
330
1B896
100
AcDbEntity
  8
AM_5
100
AcDbLine
 10
4925.453177070295
 20
107.0778417121518
 30
0.0
 11
4925.453177070295
 21
102.5178366121518
 31
0.0
  0
LINE
  5
1C567
330
1B896
100
AcDbEntity
  8
AM_5
100
AcDbLine
 10
4925.253177270293
 20
107.1978416121518
 30
0.0
 11
4925.253177270293
 21
102.3978367121518
 31
0.0
  0
LINE
  5
1C568
330
1B896
100
AcDbEntity
  8
AM_5
100
AcDbLine
 10
4925.053177470294
 20
107.3178415121517
 30
0.0
 11
4925.053177470294
 21
102.2778368121518
 31
0.0
  0
LINE
  5
1C569
330
1B896
100
AcDbEntity
  8
AM_5
100
AcDbLine
 10
4924.853177670295
 20
107.4378414121518
 30
0.0
 11
4924.853177670295
 21
102.1578369121518
 31
0.0
  0
LINE
  5
1C56A
330
1B896
100
AcDbEntity
  8
AM_5
100
AcDbLine
 10
4924.653177870293
 20
107.5578413121518
 30
0.0
 11
4924.653177870293
 21
102.0378370121518
 31
0.0
  0
LINE
  5
1C56B
330
1B896
100
AcDbEntity
  8
AM_5
100
AcDbLine
 10
4924.453177970294
 20
107.6778412121517
 30
0.0
 11
4924.453177970294
 21
101.9178371121518
 31
0.0
  0
LINE
  5
1C56C
330
1B896
100
AcDbEntity
  8
AM_5
100
AcDbLine
 10
4924.253178170295
 20
107.7978411121518
 30
0.0
 11
4924.253178170295
 21
101.7978372121518
 31
0.0
  0
LINE
  5
1C56D
330
1B896
100
AcDbEntity
  8
AM_5
100
AcDbLine
 10
4924.053178370293
 20
107.9178409121517
 30
0.0
 11
4924.053178370293
 21
101.6778374121517
 31
0.0
  0
LINE
  5
1C56E
330
1B896
100
AcDbEntity
  8
AM_5
100
AcDbLine
 10
4923.853178570294
 20
108.0378408121518
 30
0.0
 11
4923.853178570294
 21
101.5578375121518
 31
0.0
  0
LINE
  5
1C56F
330
1B896
100
AcDbEntity
  8
AM_5
100
AcDbLine
 10
4923.653178770295
 20
108.1578407121518
 30
0.0
 11
4923.653178770295
 21
101.4378376121518
 31
0.0
  0
LINE
  5
1C570
330
1B896
100
AcDbEntity
  8
AM_5
100
AcDbLine
 10
4923.453178970294
 20
108.2778396121518
 30
0.0
 11
4923.453178970294
 21
101.3178377121517
 31
0.0
  0
LINE
  5
1C571
330
1B896
100
AcDbEntity
  8
AM_5
100
AcDbLine
 10
4922.053180270293
 20
109.1178388121518
 30
0.0
 11
4922.053180270293
 21
100.4778385121518
 31
0.0
  0
LINE
  5
1C572
330
1B896
100
AcDbEntity
  8
AM_5
100
AcDbLine
 10
4922.253180070295
 20
108.9978390121518
 30
0.0
 11
4922.253180070293
 21
100.5978384121518
 31
0.0
  0
LINE
  5
1C573
330
1B896
100
AcDbEntity
  8
AM_5
100
AcDbLine
 10
4921.853180470294
 20
109.2378387121518
 30
0.0
 11
4921.853180470294
 21
100.3578386121517
 31
0.0
  0
LINE
  5
1C574
330
1B896
100
AcDbEntity
  8
AM_5
100
AcDbLine
 10
4921.653180670295
 20
109.3578386121518
 30
0.0
 11
4921.653180670295
 21
100.2378387121518
 31
0.0
  0
LINE
  5
1C575
330
1B896
100
AcDbEntity
  8
AM_5
100
AcDbLine
 10
4921.453180870294
 20
109.4778385121518
 30
0.0
 11
4921.453180870294
 21
100.1178388121518
 31
0.0
  0
LINE
  5
1C576
330
1B896
100
AcDbEntity
  8
AM_5
100
AcDbLine
 10
4921.253181070293
 20
109.5978384121518
 30
0.0
 11
4921.253181070293
 21
99.99783901215181
 31
0.0
  0
LINE
  5
1C577
330
1B896
100
AcDbEntity
  8
AM_5
100
AcDbLine
 10
4921.053181270294
 20
109.7178383121518
 30
0.0
 11
4921.053181270294
 21
99.87783911215183
 31
0.0
  0
LINE
  5
1C578
330
1B896
100
AcDbEntity
  8
AM_5
100
AcDbLine
 10
4920.853181470295
 20
109.8378382121518
 30
0.0
 11
4920.853181470295
 21
99.7578392121518
 31
0.0
  0
LINE
  5
1C579
330
1B896
100
AcDbEntity
  8
AM_5
100
AcDbLine
 10
4920.653181670293
 20
109.9578380121517
 30
0.0
 11
4920.653181670293
 21
99.63783931215182
 31
0.0
  0
LINE
  5
1C57A
330
1B896
100
AcDbEntity
  8
AM_5
100
AcDbLine
 10
4920.453181870295
 20
110.0778370121518
 30
0.0
 11
4920.453181870295
 21
99.51783941215182
 31
0.0
  0
LINE
  5
1C57B
330
1B896
100
AcDbEntity
  8
AM_5
100
AcDbLine
 10
4920.253181970295
 20
110.1978369121518
 30
0.0
 11
4920.253181970295
 21
99.39783951215185
 31
0.0
  0
LINE
  5
1C57C
330
1B896
100
AcDbEntity
  8
AM_5
100
AcDbLine
 10
4920.053182170294
 20
110.3178367121519
 30
0.0
 11
4920.053182170294
 21
99.27783961215181
 31
0.0
  0
LINE
  5
1C57D
330
1B896
100
AcDbEntity
  8
AM_5
100
AcDbLine
 10
4919.853182370294
 20
110.4378366121518
 30
0.0
 11
4919.853182370294
 21
99.15783981215184
 31
0.0
  0
LINE
  5
1C57E
330
1B896
100
AcDbEntity
  8
AM_5
100
AcDbLine
 10
4919.653182570295
 20
110.5578365121518
 30
0.0
 11
4919.653182570295
 21
99.03783991215181
 31
0.0
  0
LINE
  5
1C57F
330
1B896
100
AcDbEntity
  8
AM_5
100
AcDbLine
 10
4919.453182770293
 20
110.6778364121519
 30
0.0
 11
4919.453182770293
 21
98.91784001215183
 31
0.0
  0
LINE
  5
1C580
330
1B896
100
AcDbEntity
  8
AM_5
100
AcDbLine
 10
4919.253182970293
 20
110.7978363121518
 30
0.0
 11
4919.253182970293
 21
98.79784011215186
 31
0.0
  0
LINE
  5
1C581
330
1B896
100
AcDbEntity
  8
AM_5
100
AcDbLine
 10
4674.55316834069
 20
100.7178406723404
 30
0.0
 11
4674.55316834069
 21
108.8778414723404
 31
0.0
  0
LINE
  5
1C582
330
1B896
100
AcDbEntity
  8
AM_5
100
AcDbLine
 10
4674.353168440689
 20
100.8378405723404
 30
0.0
 11
4674.353168440689
 21
108.7578415723404
 31
0.0
  0
LINE
  5
1C583
330
1B896
100
AcDbEntity
  8
AM_5
100
AcDbLine
 10
4674.153168640688
 20
100.9578404723404
 30
0.0
 11
4674.153168640688
 21
108.6378417723404
 31
0.0
  0
LINE
  5
1C584
330
1B896
100
AcDbEntity
  8
AM_5
100
AcDbLine
 10
4673.953168840689
 20
101.0778393723404
 30
0.0
 11
4673.953168840689
 21
108.5178418723404
 31
0.0
  0
LINE
  5
1C585
330
1B896
100
AcDbEntity
  8
AM_5
100
AcDbLine
 10
4673.75316904069
 20
101.1978392723404
 30
0.0
 11
4673.75316904069
 21
108.3978419723404
 31
0.0
  0
LINE
  5
1C586
330
1B896
100
AcDbEntity
  8
AM_5
100
AcDbLine
 10
4667.753165060537
 20
104.7978397341484
 30
0.0
 11
4677.753165140689
 21
98.79784397234045
 31
0.0
  0
LINE
  5
1C587
330
1B896
100
AcDbEntity
  8
AM_5
100
AcDbLine
 10
4667.95317745069
 20
104.6778321623404
 30
0.0
 11
4667.95317745069
 21
104.9178471823405
 31
0.0
  0
LINE
  5
1C588
330
1B896
100
AcDbEntity
  8
AM_5
100
AcDbLine
 10
4667.753161059716
 20
104.7978376498511
 30
0.0
 11
4677.753164840689
 21
110.7978395723404
 31
0.0
  0
LINE
  5
1C589
330
1B896
100
AcDbEntity
  8
AM_5
100
AcDbLine
 10
4668.153174400688
 20
104.5578370423404
 30
0.0
 11
4668.153174400688
 21
105.0378451623405
 31
0.0
  0
LINE
  5
1C58A
330
1B896
100
AcDbEntity
  8
AM_5
100
AcDbLine
 10
4668.553174010688
 20
104.3178344123404
 30
0.0
 11
4668.553174010688
 21
105.2778449323404
 31
0.0
  0
LINE
  5
1C58B
330
1B896
100
AcDbEntity
  8
AM_5
100
AcDbLine
 10
4668.353174200689
 20
104.4378371523404
 30
0.0
 11
4668.353174200689
 21
105.1578450523404
 31
0.0
  0
LINE
  5
1C58C
330
1B896
100
AcDbEntity
  8
AM_5
100
AcDbLine
 10
4668.75317384069
 20
104.1978345223404
 30
0.0
 11
4668.75317384069
 21
105.3978448223404
 31
0.0
  0
LINE
  5
1C58D
330
1B896
100
AcDbEntity
  8
AM_5
100
AcDbLine
 10
4668.95317364069
 20
104.0778346323404
 30
0.0
 11
4668.95317364069
 21
105.5178447123405
 31
0.0
  0
LINE
  5
1C58E
330
1B896
100
AcDbEntity
  8
AM_5
100
AcDbLine
 10
4669.153173440689
 20
103.9578357023404
 30
0.0
 11
4669.153173440689
 21
105.6378445923404
 31
0.0
  0
LINE
  5
1C58F
330
1B896
100
AcDbEntity
  8
AM_5
100
AcDbLine
 10
4669.35317324069
 20
103.8378358223404
 30
0.0
 11
4669.35317324069
 21
105.7578444823404
 31
0.0
  0
LINE
  5
1C590
330
1B896
100
AcDbEntity
  8
AM_5
100
AcDbLine
 10
4669.553173040688
 20
103.7178359723404
 30
0.0
 11
4669.553173040688
 21
105.8778443723404
 31
0.0
  0
LINE
  5
1C591
330
1B896
100
AcDbEntity
  8
AM_5
100
AcDbLine
 10
4669.953172640689
 20
103.4778361723404
 30
0.0
 11
4669.953172640689
 21
106.1178441723404
 31
0.0
  0
LINE
  5
1C592
330
1B896
100
AcDbEntity
  8
AM_5
100
AcDbLine
 10
4669.75317284069
 20
103.5978360723405
 30
0.0
 11
4669.75317284069
 21
105.9978442723405
 31
0.0
  0
LINE
  5
1C593
330
1B896
100
AcDbEntity
  8
AM_5
100
AcDbLine
 10
4670.153172440688
 20
103.3578362723404
 30
0.0
 11
4670.153172440688
 21
106.2378439723405
 31
0.0
  0
LINE
  5
1C594
330
1B896
100
AcDbEntity
  8
AM_5
100
AcDbLine
 10
4670.353172340688
 20
103.2378363723405
 30
0.0
 11
4670.353172340688
 21
106.3578438723404
 31
0.0
  0
LINE
  5
1C595
330
1B896
100
AcDbEntity
  8
AM_5
100
AcDbLine
 10
4670.55317214069
 20
103.1178364723404
 30
0.0
 11
4670.55317214069
 21
106.4778437723404
 31
0.0
  0
LINE
  5
1C596
330
1B896
100
AcDbEntity
  8
AM_5
100
AcDbLine
 10
4670.753171940691
 20
102.9978365723404
 30
0.0
 11
4670.753171940691
 21
106.5978436723404
 31
0.0
  0
LINE
  5
1C597
330
1B896
100
AcDbEntity
  8
AM_5
100
AcDbLine
 10
4670.95317174069
 20
102.8778367723404
 30
0.0
 11
4670.95317174069
 21
106.7178435723404
 31
0.0
  0
LINE
  5
1C598
330
1B896
100
AcDbEntity
  8
AM_5
100
AcDbLine
 10
4671.153171540689
 20
102.7578368723403
 30
0.0
 11
4671.153171540689
 21
106.8378434723404
 31
0.0
  0
LINE
  5
1C599
330
1B896
100
AcDbEntity
  8
AM_5
100
AcDbLine
 10
4671.353171340689
 20
102.6378369723405
 30
0.0
 11
4671.353171340689
 21
106.9578433723404
 31
0.0
  0
LINE
  5
1C59A
330
1B896
100
AcDbEntity
  8
AM_5
100
AcDbLine
 10
4671.553171140689
 20
102.5178380723404
 30
0.0
 11
4671.553171140689
 21
107.0778431723404
 31
0.0
  0
LINE
  5
1C59B
330
1B896
100
AcDbEntity
  8
AM_5
100
AcDbLine
 10
4671.75317094069
 20
102.3978381723404
 30
0.0
 11
4671.75317094069
 21
107.1978430723404
 31
0.0
  0
LINE
  5
1C59C
330
1B896
100
AcDbEntity
  8
AM_5
100
AcDbLine
 10
4671.953170740689
 20
102.2778382723405
 30
0.0
 11
4671.953170740689
 21
107.3178429723404
 31
0.0
  0
LINE
  5
1C59D
330
1B896
100
AcDbEntity
  8
AM_5
100
AcDbLine
 10
4672.153170540687
 20
102.1578383723404
 30
0.0
 11
4672.153170540687
 21
107.4378428723404
 31
0.0
  0
LINE
  5
1C59E
330
1B896
100
AcDbEntity
  8
AM_5
100
AcDbLine
 10
4672.353170340687
 20
102.0378384723404
 30
0.0
 11
4672.353170340687
 21
107.5578427723404
 31
0.0
  0
LINE
  5
1C59F
330
1B896
100
AcDbEntity
  8
AM_5
100
AcDbLine
 10
4672.553170240689
 20
101.9178385723405
 30
0.0
 11
4672.553170240689
 21
107.6778426723404
 31
0.0
  0
LINE
  5
1C5A0
330
1B896
100
AcDbEntity
  8
AM_5
100
AcDbLine
 10
4672.753170040689
 20
101.7978386723404
 30
0.0
 11
4672.753170040689
 21
107.7978425723404
 31
0.0
  0
LINE
  5
1C5A1
330
1B896
100
AcDbEntity
  8
AM_5
100
AcDbLine
 10
4672.95316984069
 20
101.6778388723405
 30
0.0
 11
4672.95316984069
 21
107.9178423723404
 31
0.0
  0
LINE
  5
1C5A2
330
1B896
100
AcDbEntity
  8
AM_5
100
AcDbLine
 10
4673.153169640689
 20
101.5578389723404
 30
0.0
 11
4673.153169640689
 21
108.0378422723404
 31
0.0
  0
LINE
  5
1C5A3
330
1B896
100
AcDbEntity
  8
AM_5
100
AcDbLine
 10
4673.353169440688
 20
101.4378390723404
 30
0.0
 11
4673.353169440688
 21
108.1578421723404
 31
0.0
  0
LINE
  5
1C5A4
330
1B896
100
AcDbEntity
  8
AM_5
100
AcDbLine
 10
4673.553169240689
 20
101.3178401723404
 30
0.0
 11
4673.553169240689
 21
108.2778420723404
 31
0.0
  0
LINE
  5
1C5A5
330
1B896
100
AcDbEntity
  8
AM_5
100
AcDbLine
 10
4674.95316794069
 20
100.4778409723404
 30
0.0
 11
4674.95316794069
 21
109.1178412723404
 31
0.0
  0
LINE
  5
1C5A6
330
1B896
100
AcDbEntity
  8
AM_5
100
AcDbLine
 10
4674.753168140688
 20
100.5978407723404
 30
0.0
 11
4674.753168140691
 21
108.9978413723404
 31
0.0
  0
LINE
  5
1C5A7
330
1B896
100
AcDbEntity
  8
AM_5
100
AcDbLine
 10
4675.153167740689
 20
100.3578410723404
 30
0.0
 11
4675.153167740689
 21
109.2378411723404
 31
0.0
  0
LINE
  5
1C5A8
330
1B896
100
AcDbEntity
  8
AM_5
100
AcDbLine
 10
4675.353167540688
 20
100.2378411723404
 30
0.0
 11
4675.353167540688
 21
109.3578410723404
 31
0.0
  0
LINE
  5
1C5A9
330
1B896
100
AcDbEntity
  8
AM_5
100
AcDbLine
 10
4675.553167340689
 20
100.1178412723404
 30
0.0
 11
4675.553167340689
 21
109.4778409723404
 31
0.0
  0
LINE
  5
1C5AA
330
1B896
100
AcDbEntity
  8
AM_5
100
AcDbLine
 10
4675.75316714069
 20
99.99784137234042
 30
0.0
 11
4675.75316714069
 21
109.5978407723404
 31
0.0
  0
LINE
  5
1C5AB
330
1B896
100
AcDbEntity
  8
AM_5
100
AcDbLine
 10
4675.953166940689
 20
99.87784147234044
 30
0.0
 11
4675.953166940689
 21
109.7178406723404
 31
0.0
  0
LINE
  5
1C5AC
330
1B896
100
AcDbEntity
  8
AM_5
100
AcDbLine
 10
4676.153166740689
 20
99.75784157234045
 30
0.0
 11
4676.153166740689
 21
109.8378405723404
 31
0.0
  0
LINE
  5
1C5AD
330
1B896
100
AcDbEntity
  8
AM_5
100
AcDbLine
 10
4676.35316654069
 20
99.63784177234044
 30
0.0
 11
4676.35316654069
 21
109.9578404723404
 31
0.0
  0
LINE
  5
1C5AE
330
1B896
100
AcDbEntity
  8
AM_5
100
AcDbLine
 10
4676.553166340688
 20
99.51784277234043
 30
0.0
 11
4676.553166340688
 21
110.0778403723404
 31
0.0
  0
LINE
  5
1C5AF
330
1B896
100
AcDbEntity
  8
AM_5
100
AcDbLine
 10
4676.753166240689
 20
99.39784287234045
 30
0.0
 11
4676.753166240689
 21
110.1978402723404
 31
0.0
  0
LINE
  5
1C5B0
330
1B896
100
AcDbEntity
  8
AM_5
100
AcDbLine
 10
4676.95316604069
 20
99.27784307234043
 30
0.0
 11
4676.95316604069
 21
110.3178401723404
 31
0.0
  0
LINE
  5
1C5B1
330
1B896
100
AcDbEntity
  8
AM_5
100
AcDbLine
 10
4677.153165840689
 20
99.15784317234045
 30
0.0
 11
4677.153165840689
 21
110.4378399723404
 31
0.0
  0
LINE
  5
1C5B2
330
1B896
100
AcDbEntity
  8
AM_5
100
AcDbLine
 10
4677.353165640688
 20
99.03784327234042
 30
0.0
 11
4677.353165640688
 21
110.5578398723404
 31
0.0
  0
LINE
  5
1C5B3
330
1B896
100
AcDbEntity
  8
AM_5
100
AcDbLine
 10
4677.55316544069
 20
98.91784337234042
 30
0.0
 11
4677.55316544069
 21
110.6778397723404
 31
0.0
  0
LINE
  5
1C5B4
330
1B896
100
AcDbEntity
  8
AM_5
100
AcDbLine
 10
4677.75316524069
 20
98.79784347234044
 30
0.0
 11
4677.75316524069
 21
110.7978396723403
 31
0.0
  0
LINE
  5
1C5B5
330
1B896
100
AcDbEntity
  8
AM_5
100
AcDbLine
 10
4499.872582736285
 20
375.2536333658782
 30
0.0
 11
4508.032583536283
 21
375.2536333658782
 31
0.0
  0
LINE
  5
1C5B6
330
1B896
100
AcDbEntity
  8
AM_5
100
AcDbLine
 10
4499.992582636285
 20
375.4536332658781
 30
0.0
 11
4507.912583636283
 21
375.4536332658781
 31
0.0
  0
LINE
  5
1C5B7
330
1B896
100
AcDbEntity
  8
AM_5
100
AcDbLine
 10
4500.112582536285
 20
375.6536330658792
 30
0.0
 11
4507.792583836284
 21
375.6536330658792
 31
0.0
  0
LINE
  5
1C5B8
330
1B896
100
AcDbEntity
  8
AM_5
100
AcDbLine
 10
4500.232581436285
 20
375.8536328658784
 30
0.0
 11
4507.672583936284
 21
375.8536328658784
 31
0.0
  0
LINE
  5
1C5B9
330
1B896
100
AcDbEntity
  8
AM_5
100
AcDbLine
 10
4500.352581336285
 20
376.0536326658776
 30
0.0
 11
4507.552584036284
 21
376.0536326658776
 31
0.0
  0
LINE
  5
1C5BA
330
1B896
100
AcDbEntity
  8
AM_5
100
AcDbLine
 10
4503.952581798092
 20
382.0536366460301
 30
0.0
 11
4497.952586036285
 21
372.0536365658782
 31
0.0
  0
LINE
  5
1C5BB
330
1B896
100
AcDbEntity
  8
AM_5
100
AcDbLine
 10
4503.832574226284
 20
381.8536242558776
 30
0.0
 11
4504.072589246285
 21
381.8536242558776
 31
0.0
  0
LINE
  5
1C5BC
330
1B896
100
AcDbEntity
  8
AM_5
100
AcDbLine
 10
4503.952579713796
 20
382.0536406468518
 30
0.0
 11
4509.952581636284
 21
372.0536368658786
 31
0.0
  0
LINE
  5
1C5BD
330
1B896
100
AcDbEntity
  8
AM_5
100
AcDbLine
 10
4503.712579106284
 20
381.6536273058782
 30
0.0
 11
4504.192587226286
 21
381.6536273058782
 31
0.0
  0
LINE
  5
1C5BE
330
1B896
100
AcDbEntity
  8
AM_5
100
AcDbLine
 10
4503.472576476284
 20
381.253627695879
 30
0.0
 11
4504.432586996284
 21
381.253627695879
 31
0.0
  0
LINE
  5
1C5BF
330
1B896
100
AcDbEntity
  8
AM_5
100
AcDbLine
 10
4503.592579216284
 20
381.453627505879
 30
0.0
 11
4504.312587116285
 21
381.453627505879
 31
0.0
  0
LINE
  5
1C5C0
330
1B896
100
AcDbEntity
  8
AM_5
100
AcDbLine
 10
4503.352576586285
 20
381.0536278658774
 30
0.0
 11
4504.552586886284
 21
381.0536278658774
 31
0.0
  0
LINE
  5
1C5C1
330
1B896
100
AcDbEntity
  8
AM_5
100
AcDbLine
 10
4503.232576696284
 20
380.8536280658782
 30
0.0
 11
4504.672586776285
 21
380.8536280658782
 31
0.0
  0
LINE
  5
1C5C2
330
1B896
100
AcDbEntity
  8
AM_5
100
AcDbLine
 10
4503.112577766283
 20
380.653628265879
 30
0.0
 11
4504.792586656283
 21
380.653628265879
 31
0.0
  0
LINE
  5
1C5C3
330
1B896
100
AcDbEntity
  8
AM_5
100
AcDbLine
 10
4502.992577886285
 20
380.453628465878
 30
0.0
 11
4504.912586546285
 21
380.453628465878
 31
0.0
  0
LINE
  5
1C5C4
330
1B896
100
AcDbEntity
  8
AM_5
100
AcDbLine
 10
4502.872578036284
 20
380.2536286658788
 30
0.0
 11
4505.032586436284
 21
380.2536286658788
 31
0.0
  0
LINE
  5
1C5C5
330
1B896
100
AcDbEntity
  8
AM_5
100
AcDbLine
 10
4502.632578236283
 20
379.8536290658785
 30
0.0
 11
4505.272586236284
 21
379.8536290658785
 31
0.0
  0
LINE
  5
1C5C6
330
1B896
100
AcDbEntity
  8
AM_5
100
AcDbLine
 10
4502.752578136283
 20
380.0536288658777
 30
0.0
 11
4505.152586336284
 21
380.0536288658777
 31
0.0
  0
LINE
  5
1C5C7
330
1B896
100
AcDbEntity
  8
AM_5
100
AcDbLine
 10
4502.512578336284
 20
379.6536292658793
 30
0.0
 11
4505.392586036285
 21
379.6536292658793
 31
0.0
  0
LINE
  5
1C5C8
330
1B896
100
AcDbEntity
  8
AM_5
100
AcDbLine
 10
4502.392578436285
 20
379.4536293658794
 30
0.0
 11
4505.512585936285
 21
379.4536293658794
 31
0.0
  0
LINE
  5
1C5C9
330
1B896
100
AcDbEntity
  8
AM_5
100
AcDbLine
 10
4502.272578536284
 20
379.2536295658783
 30
0.0
 11
4505.632585836285
 21
379.2536295658783
 31
0.0
  0
LINE
  5
1C5CA
330
1B896
100
AcDbEntity
  8
AM_5
100
AcDbLine
 10
4502.152578636286
 20
379.0536297658773
 30
0.0
 11
4505.752585736285
 21
379.0536297658773
 31
0.0
  0
LINE
  5
1C5CB
330
1B896
100
AcDbEntity
  8
AM_5
100
AcDbLine
 10
4502.032578836284
 20
378.8536299658781
 30
0.0
 11
4505.872585636285
 21
378.8536299658781
 31
0.0
  0
LINE
  5
1C5CC
330
1B896
100
AcDbEntity
  8
AM_5
100
AcDbLine
 10
4501.912578936284
 20
378.6536301658789
 30
0.0
 11
4505.992585536286
 21
378.6536301658789
 31
0.0
  0
LINE
  5
1C5CD
330
1B896
100
AcDbEntity
  8
AM_5
100
AcDbLine
 10
4501.792579036284
 20
378.4536303658797
 30
0.0
 11
4506.112585436286
 21
378.4536303658779
 31
0.0
  0
LINE
  5
1C5CE
330
1B896
100
AcDbEntity
  8
AM_5
100
AcDbLine
 10
4501.672580136284
 20
378.2536305658787
 30
0.0
 11
4506.232585236285
 21
378.2536305658787
 31
0.0
  0
LINE
  5
1C5CF
330
1B896
100
AcDbEntity
  8
AM_5
100
AcDbLine
 10
4501.552580236285
 20
378.0536307658777
 30
0.0
 11
4506.352585136284
 21
378.0536307658777
 31
0.0
  0
LINE
  5
1C5D0
330
1B896
100
AcDbEntity
  8
AM_5
100
AcDbLine
 10
4501.432580336284
 20
377.8536309658785
 30
0.0
 11
4506.472585036284
 21
377.8536309658785
 31
0.0
  0
LINE
  5
1C5D1
330
1B896
100
AcDbEntity
  8
AM_5
100
AcDbLine
 10
4501.312580436284
 20
377.6536311658792
 30
0.0
 11
4506.592584936282
 21
377.6536311658792
 31
0.0
  0
LINE
  5
1C5D2
330
1B896
100
AcDbEntity
  8
AM_5
100
AcDbLine
 10
4501.192580536284
 20
377.4536313658782
 30
0.0
 11
4506.712584836285
 21
377.4536313658782
 31
0.0
  0
LINE
  5
1C5D3
330
1B896
100
AcDbEntity
  8
AM_5
100
AcDbLine
 10
4501.072580636284
 20
377.2536314658783
 30
0.0
 11
4506.832584736285
 21
377.2536314658783
 31
0.0
  0
LINE
  5
1C5D4
330
1B896
100
AcDbEntity
  8
AM_5
100
AcDbLine
 10
4500.952580736284
 20
377.0536316658791
 30
0.0
 11
4506.952584636285
 21
377.0536316658791
 31
0.0
  0
LINE
  5
1C5D5
330
1B896
100
AcDbEntity
  8
AM_5
100
AcDbLine
 10
4500.832580936285
 20
376.853631865878
 30
0.0
 11
4507.072584436284
 21
376.853631865878
 31
0.0
  0
LINE
  5
1C5D6
330
1B896
100
AcDbEntity
  8
AM_5
100
AcDbLine
 10
4500.712581036284
 20
376.6536320658788
 30
0.0
 11
4507.192584336284
 21
376.6536320658788
 31
0.0
  0
LINE
  5
1C5D7
330
1B896
100
AcDbEntity
  8
AM_5
100
AcDbLine
 10
4500.592581136285
 20
376.4536322658796
 30
0.0
 11
4507.312584236284
 21
376.4536322658796
 31
0.0
  0
LINE
  5
1C5D8
330
1B896
100
AcDbEntity
  8
AM_5
100
AcDbLine
 10
4500.472582236285
 20
376.2536324658786
 30
0.0
 11
4507.432584136284
 21
376.2536324658786
 31
0.0
  0
LINE
  5
1C5D9
330
1B896
100
AcDbEntity
  8
AM_5
100
AcDbLine
 10
4499.632583036285
 20
374.8536337658779
 30
0.0
 11
4508.272583336284
 21
374.8536337658779
 31
0.0
  0
LINE
  5
1C5DA
330
1B896
100
AcDbEntity
  8
AM_5
100
AcDbLine
 10
4499.752582836285
 20
375.053633565879
 30
0.0
 11
4508.152583436284
 21
375.0536335658772
 31
0.0
  0
LINE
  5
1C5DB
330
1B896
100
AcDbEntity
  8
AM_5
100
AcDbLine
 10
4499.512583136284
 20
374.6536339658787
 30
0.0
 11
4508.392583236283
 21
374.6536339658787
 31
0.0
  0
LINE
  5
1C5DC
330
1B896
100
AcDbEntity
  8
AM_5
100
AcDbLine
 10
4499.392583236284
 20
374.4536341658795
 30
0.0
 11
4508.512583136283
 21
374.4536341658795
 31
0.0
  0
LINE
  5
1C5DD
330
1B896
100
AcDbEntity
  8
AM_5
100
AcDbLine
 10
4499.272583336284
 20
374.2536343658785
 30
0.0
 11
4508.632583036286
 21
374.2536343658785
 31
0.0
  0
LINE
  5
1C5DE
330
1B896
100
AcDbEntity
  8
AM_5
100
AcDbLine
 10
4499.152583436283
 20
374.0536345658775
 30
0.0
 11
4508.752582836285
 21
374.0536345658775
 31
0.0
  0
LINE
  5
1C5DF
330
1B896
100
AcDbEntity
  8
AM_5
100
AcDbLine
 10
4499.032583536283
 20
373.8536347658783
 30
0.0
 11
4508.872582736285
 21
373.8536347658783
 31
0.0
  0
LINE
  5
1C5E0
330
1B896
100
AcDbEntity
  8
AM_5
100
AcDbLine
 10
4498.912583636283
 20
373.6536349658791
 30
0.0
 11
4508.992582636285
 21
373.6536349658791
 31
0.0
  0
LINE
  5
1C5E1
330
1B896
100
AcDbEntity
  8
AM_5
100
AcDbLine
 10
4498.792583836284
 20
373.4536351658781
 30
0.0
 11
4509.112582536284
 21
373.4536351658781
 31
0.0
  0
LINE
  5
1C5E2
330
1B896
100
AcDbEntity
  8
AM_5
100
AcDbLine
 10
4498.672584836284
 20
373.2536353658789
 30
0.0
 11
4509.232582436285
 21
373.2536353658789
 31
0.0
  0
LINE
  5
1C5E3
330
1B896
100
AcDbEntity
  8
AM_5
100
AcDbLine
 10
4498.552584936286
 20
373.0536354658789
 30
0.0
 11
4509.352582336285
 21
373.0536354658789
 31
0.0
  0
LINE
  5
1C5E4
330
1B896
100
AcDbEntity
  8
AM_5
100
AcDbLine
 10
4498.432585136284
 20
372.8536356658779
 30
0.0
 11
4509.472582236285
 21
372.8536356658779
 31
0.0
  0
LINE
  5
1C5E5
330
1B896
100
AcDbEntity
  8
AM_5
100
AcDbLine
 10
4498.312585236284
 20
372.6536358658787
 30
0.0
 11
4509.592582036284
 21
372.6536358658787
 31
0.0
  0
LINE
  5
1C5E6
330
1B896
100
AcDbEntity
  8
AM_5
100
AcDbLine
 10
4498.192585336284
 20
372.4536360658795
 30
0.0
 11
4509.712581936284
 21
372.4536360658795
 31
0.0
  0
LINE
  5
1C5E7
330
1B896
100
AcDbEntity
  8
AM_5
100
AcDbLine
 10
4498.072585436284
 20
372.2536362658784
 30
0.0
 11
4509.832581836284
 21
372.2536362658784
 31
0.0
  0
LINE
  5
1C5E8
330
1B896
100
AcDbEntity
  8
AM_5
100
AcDbLine
 10
4497.952585536284
 20
372.0536364658774
 30
0.0
 11
4509.952581736285
 21
372.0536364658774
 31
0.0
  0
LINE
  5
1C5E9
330
1B896
100
AcDbEntity
  8
AM_5
100
AcDbLine
 10
4508.032578775603
 20
100.3536439270036
 30
0.0
 11
4499.872577975604
 21
100.3536439270036
 31
0.0
  0
LINE
  5
1C5EA
330
1B896
100
AcDbEntity
  8
AM_5
100
AcDbLine
 10
4507.912578875603
 20
100.1536440270036
 30
0.0
 11
4499.992577875604
 21
100.1536440270036
 31
0.0
  0
LINE
  5
1C5EB
330
1B896
100
AcDbEntity
  8
AM_5
100
AcDbLine
 10
4507.792578975602
 20
99.95364422700266
 30
0.0
 11
4500.112577675603
 21
99.95364422700266
 31
0.0
  0
LINE
  5
1C5EC
330
1B896
100
AcDbEntity
  8
AM_5
100
AcDbLine
 10
4507.672580075603
 20
99.75364442700346
 30
0.0
 11
4500.232577575603
 21
99.75364442700346
 31
0.0
  0
LINE
  5
1C5ED
330
1B896
100
AcDbEntity
  8
AM_5
100
AcDbLine
 10
4507.552580175603
 20
99.55364462700424
 30
0.0
 11
4500.352577475603
 21
99.55364462700424
 31
0.0
  0
LINE
  5
1C5EE
330
1B896
100
AcDbEntity
  8
AM_5
100
AcDbLine
 10
4503.952579713796
 20
93.5536406468517
 30
0.0
 11
4509.952575475603
 21
103.5536407270036
 31
0.0
  0
LINE
  5
1C5EF
330
1B896
100
AcDbEntity
  8
AM_5
100
AcDbLine
 10
4504.072587285604
 20
93.75365303700425
 30
0.0
 11
4503.832572265602
 21
93.75365303700425
 31
0.0
  0
LINE
  5
1C5F0
330
1B896
100
AcDbEntity
  8
AM_5
100
AcDbLine
 10
4503.952581798092
 20
93.55363664602998
 30
0.0
 11
4497.952579875604
 21
103.5536404270031
 31
0.0
  0
LINE
  5
1C5F1
330
1B896
100
AcDbEntity
  8
AM_5
100
AcDbLine
 10
4504.192582405603
 20
93.95364998700358
 30
0.0
 11
4503.712574285603
 21
93.95364998700358
 31
0.0
  0
LINE
  5
1C5F2
330
1B896
100
AcDbEntity
  8
AM_5
100
AcDbLine
 10
4504.432585035604
 20
94.35364959700279
 30
0.0
 11
4503.472574515604
 21
94.35364959700279
 31
0.0
  0
LINE
  5
1C5F3
330
1B896
100
AcDbEntity
  8
AM_5
100
AcDbLine
 10
4504.312582295603
 20
94.1536497870028
 30
0.0
 11
4503.592574395603
 21
94.1536497870028
 31
0.0
  0
LINE
  5
1C5F4
330
1B896
100
AcDbEntity
  8
AM_5
100
AcDbLine
 10
4504.552584925603
 20
94.55364942700441
 30
0.0
 11
4503.352574625604
 21
94.55364942700441
 31
0.0
  0
LINE
  5
1C5F5
330
1B896
100
AcDbEntity
  8
AM_5
100
AcDbLine
 10
4504.672584815604
 20
94.75364922700363
 30
0.0
 11
4503.232574735602
 21
94.75364922700363
 31
0.0
  0
LINE
  5
1C5F6
330
1B896
100
AcDbEntity
  8
AM_5
100
AcDbLine
 10
4504.792583745603
 20
94.95364902700282
 30
0.0
 11
4503.112574855604
 21
94.95364902700282
 31
0.0
  0
LINE
  5
1C5F7
330
1B896
100
AcDbEntity
  8
AM_5
100
AcDbLine
 10
4504.912583625602
 20
95.15364882700385
 30
0.0
 11
4502.992574965603
 21
95.15364882700385
 31
0.0
  0
LINE
  5
1C5F8
330
1B896
100
AcDbEntity
  8
AM_5
100
AcDbLine
 10
4505.032583475604
 20
95.35364862700305
 30
0.0
 11
4502.872575075604
 21
95.35364862700305
 31
0.0
  0
LINE
  5
1C5F9
330
1B896
100
AcDbEntity
  8
AM_5
100
AcDbLine
 10
4505.272583275604
 20
95.75364822700327
 30
0.0
 11
4502.632575275604
 21
95.75364822700327
 31
0.0
  0
LINE
  5
1C5FA
330
1B896
100
AcDbEntity
  8
AM_5
100
AcDbLine
 10
4505.152583375603
 20
95.55364842700408
 30
0.0
 11
4502.752575175604
 21
95.55364842700408
 31
0.0
  0
LINE
  5
1C5FB
330
1B896
100
AcDbEntity
  8
AM_5
100
AcDbLine
 10
4505.392583175604
 20
95.95364802700249
 30
0.0
 11
4502.512575475602
 21
95.95364802700249
 31
0.0
  0
LINE
  5
1C5FC
330
1B896
100
AcDbEntity
  8
AM_5
100
AcDbLine
 10
4505.512583075602
 20
96.15364792700246
 30
0.0
 11
4502.392575575602
 21
96.15364792700246
 31
0.0
  0
LINE
  5
1C5FD
330
1B896
100
AcDbEntity
  8
AM_5
100
AcDbLine
 10
4505.632582975604
 20
96.35364772700349
 30
0.0
 11
4502.272575675602
 21
96.35364772700349
 31
0.0
  0
LINE
  5
1C5FE
330
1B896
100
AcDbEntity
  8
AM_5
100
AcDbLine
 10
4505.752582875603
 20
96.5536475270045
 30
0.0
 11
4502.152575775602
 21
96.5536475270045
 31
0.0
  0
LINE
  5
1C5FF
330
1B896
100
AcDbEntity
  8
AM_5
100
AcDbLine
 10
4505.872582675603
 20
96.75364732700371
 30
0.0
 11
4502.032575875602
 21
96.75364732700371
 31
0.0
  0
LINE
  5
1C600
330
1B896
100
AcDbEntity
  8
AM_5
100
AcDbLine
 10
4505.992582575603
 20
96.95364712700291
 30
0.0
 11
4501.912575975603
 21
96.95364712700291
 31
0.0
  0
LINE
  5
1C601
330
1B896
100
AcDbEntity
  8
AM_5
100
AcDbLine
 10
4506.112582475604
 20
97.15364692700212
 30
0.0
 11
4501.792576075603
 21
97.15364692700394
 31
0.0
  0
LINE
  5
1C602
330
1B896
100
AcDbEntity
  8
AM_5
100
AcDbLine
 10
4506.232581375603
 20
97.35364672700313
 30
0.0
 11
4501.672576275603
 21
97.35364672700313
 31
0.0
  0
LINE
  5
1C603
330
1B896
100
AcDbEntity
  8
AM_5
100
AcDbLine
 10
4506.352581275603
 20
97.55364652700416
 30
0.0
 11
4501.552576375603
 21
97.55364652700416
 31
0.0
  0
LINE
  5
1C604
330
1B896
100
AcDbEntity
  8
AM_5
100
AcDbLine
 10
4506.472581175603
 20
97.75364632700338
 30
0.0
 11
4501.432576475603
 21
97.75364632700338
 31
0.0
  0
LINE
  5
1C605
330
1B896
100
AcDbEntity
  8
AM_5
100
AcDbLine
 10
4506.592581075604
 20
97.95364612700257
 30
0.0
 11
4501.312576575602
 21
97.95364612700257
 31
0.0
  0
LINE
  5
1C606
330
1B896
100
AcDbEntity
  8
AM_5
100
AcDbLine
 10
4506.712580975603
 20
98.1536459270036
 30
0.0
 11
4501.192576675602
 21
98.1536459270036
 31
0.0
  0
LINE
  5
1C607
330
1B896
100
AcDbEntity
  8
AM_5
100
AcDbLine
 10
4506.832580875603
 20
98.35364582700357
 30
0.0
 11
4501.072576775603
 21
98.35364582700357
 31
0.0
  0
LINE
  5
1C608
330
1B896
100
AcDbEntity
  8
AM_5
100
AcDbLine
 10
4506.952580775603
 20
98.55364562700277
 30
0.0
 11
4500.952576875603
 21
98.55364562700277
 31
0.0
  0
LINE
  5
1C609
330
1B896
100
AcDbEntity
  8
AM_5
100
AcDbLine
 10
4507.072580575602
 20
98.75364542700379
 30
0.0
 11
4500.832577075604
 21
98.75364542700379
 31
0.0
  0
LINE
  5
1C60A
330
1B896
100
AcDbEntity
  8
AM_5
100
AcDbLine
 10
4507.192580475605
 20
98.95364522700299
 30
0.0
 11
4500.712577175604
 21
98.95364522700299
 31
0.0
  0
LINE
  5
1C60B
330
1B896
100
AcDbEntity
  8
AM_5
100
AcDbLine
 10
4507.312580375603
 20
99.15364502700221
 30
0.0
 11
4500.592577275603
 21
99.15364502700221
 31
0.0
  0
LINE
  5
1C60C
330
1B896
100
AcDbEntity
  8
AM_5
100
AcDbLine
 10
4507.432579275603
 20
99.35364482700322
 30
0.0
 11
4500.472577375603
 21
99.35364482700322
 31
0.0
  0
LINE
  5
1C60D
330
1B896
100
AcDbEntity
  8
AM_5
100
AcDbLine
 10
4508.272578475604
 20
100.7536435270038
 30
0.0
 11
4499.632578175604
 21
100.7536435270038
 31
0.0
  0
LINE
  5
1C60E
330
1B896
100
AcDbEntity
  8
AM_5
100
AcDbLine
 10
4508.152578675603
 20
100.5536437270028
 30
0.0
 11
4499.752578075604
 21
100.5536437270046
 31
0.0
  0
LINE
  5
1C60F
330
1B896
100
AcDbEntity
  8
AM_5
100
AcDbLine
 10
4508.392578375604
 20
100.953643327003
 30
0.0
 11
4499.512578275604
 21
100.953643327003
 31
0.0
  0
LINE
  5
1C610
330
1B896
100
AcDbEntity
  8
AM_5
100
AcDbLine
 10
4508.512578275604
 20
101.1536431270022
 30
0.0
 11
4499.392578375604
 21
101.1536431270022
 31
0.0
  0
LINE
  5
1C611
330
1B896
100
AcDbEntity
  8
AM_5
100
AcDbLine
 10
4508.632578175603
 20
101.3536429270033
 30
0.0
 11
4499.272578475603
 21
101.3536429270033
 31
0.0
  0
LINE
  5
1C612
330
1B896
100
AcDbEntity
  8
AM_5
100
AcDbLine
 10
4508.752578075603
 20
101.5536427270043
 30
0.0
 11
4499.152578675603
 21
101.5536427270043
 31
0.0
  0
LINE
  5
1C613
330
1B896
100
AcDbEntity
  8
AM_5
100
AcDbLine
 10
4508.872577975604
 20
101.7536425270035
 30
0.0
 11
4499.032578775603
 21
101.7536425270035
 31
0.0
  0
LINE
  5
1C614
330
1B896
100
AcDbEntity
  8
AM_5
100
AcDbLine
 10
4508.992577875604
 20
101.9536423270027
 30
0.0
 11
4498.912578875603
 21
101.9536423270027
 31
0.0
  0
LINE
  5
1C615
330
1B896
100
AcDbEntity
  8
AM_5
100
AcDbLine
 10
4509.112577675604
 20
102.1536421270037
 30
0.0
 11
4498.792578975602
 21
102.1536421270037
 31
0.0
  0
LINE
  5
1C616
330
1B896
100
AcDbEntity
  8
AM_5
100
AcDbLine
 10
4509.232576675604
 20
102.3536419270029
 30
0.0
 11
4498.672579075602
 21
102.3536419270029
 31
0.0
  0
LINE
  5
1C617
330
1B896
100
AcDbEntity
  8
AM_5
100
AcDbLine
 10
4509.352576575603
 20
102.5536418270029
 30
0.0
 11
4498.552579175602
 21
102.5536418270029
 31
0.0
  0
LINE
  5
1C618
330
1B896
100
AcDbEntity
  8
AM_5
100
AcDbLine
 10
4509.472576375602
 20
102.7536416270039
 30
0.0
 11
4498.432579275602
 21
102.7536416270039
 31
0.0
  0
LINE
  5
1C619
330
1B896
100
AcDbEntity
  8
AM_5
100
AcDbLine
 10
4509.592576275603
 20
102.9536414270031
 30
0.0
 11
4498.312579475603
 21
102.9536414270031
 31
0.0
  0
LINE
  5
1C61A
330
1B896
100
AcDbEntity
  8
AM_5
100
AcDbLine
 10
4509.712576175603
 20
103.1536412270023
 30
0.0
 11
4498.192579575603
 21
103.1536412270023
 31
0.0
  0
LINE
  5
1C61B
330
1B896
100
AcDbEntity
  8
AM_5
100
AcDbLine
 10
4509.832576075603
 20
103.3536410270033
 30
0.0
 11
4498.072579675603
 21
103.3536410270033
 31
0.0
  0
LINE
  5
1C61C
330
1B896
100
AcDbEntity
  8
AM_5
100
AcDbLine
 10
4509.952575975603
 20
103.5536408270044
 30
0.0
 11
4497.952579775603
 21
103.5536408270044
 31
0.0
  0
LINE
  5
1C61D
330
1B896
100
AcDbEntity
  8
AM_5
100
AcDbLine
 10
4652.753164797043
 20
174.7126830435638
 30
0.0
 11
4652.753164797043
 21
116.797839892246
 31
0.0
1001
ACAD_DSTYLE_DIMINSPECT
1070
   393
1070
     0
1001
ACAD
1000
DSTYLE
1002
{
1070
   174
1070
     1
1070
    40
1040
2.0
1002
}
  0
LINE
  5
1C61E
330
1B896
100
AcDbEntity
  8
AM_5
100
AcDbLine
 10
4640.253164797043
 20
174.7126830435638
 30
0.0
 11
4640.253164797043
 21
116.797839892246
 31
0.0
1001
ACAD_DSTYLE_DIMINSPECT
1070
   393
1070
     0
1001
ACAD
1000
DSTYLE
1002
{
1070
   174
1070
     1
1070
    40
1040
2.0
1002
}
  0
LINE
  5
1C61F
330
1B896
100
AcDbEntity
  8
AM_5
100
AcDbLine
 10
4640.253164797043
 20
118.797839892246
 30
0.0
 11
4615.608287215557
 21
118.797839892246
 31
0.0
1001
ACAD_DSTYLE_DIMINSPECT
1070
   393
1070
     0
1001
ACAD
1000
DSTYLE
1002
{
1070
   174
1070
     1
1070
    40
1040
2.0
1002
}
  0
LINE
  5
1C620
330
1B896
100
AcDbEntity
  8
AM_5
100
AcDbLine
 10
4652.753164797043
 20
118.797839892246
 30
0.0
 11
4640.253164797043
 21
118.797839892246
 31
0.0
1001
ACAD_DSTYLE_DIMINSPECT
1070
   393
1070
     0
1001
ACAD
1000
DSTYLE
1002
{
1070
   174
1070
     1
1070
    40
1040
2.0
1002
}
  0
LINE
  5
1C621
330
1B896
100
AcDbEntity
  8
AM_5
100
AcDbLine
 10
4663.753164797042
 20
190.7126830435638
 30
0.0
 11
4663.753164797042
 21
116.797839892246
 31
0.0
1001
ACAD_DSTYLE_DIMINSPECT
1070
   393
1070
     0
1001
ACAD
1000
DSTYLE
1002
{
1070
   174
1070
     1
1070
    40
1040
2.0
1002
}
  0
LINE
  5
1C622
330
1B896
100
AcDbEntity
  8
AM_5
100
AcDbLine
 10
4652.753164797043
 20
174.7126830435638
 30
0.0
 11
4652.753164797043
 21
116.797839892246
 31
0.0
1001
ACAD_DSTYLE_DIMINSPECT
1070
   393
1070
     0
1001
ACAD
1000
DSTYLE
1002
{
1070
   174
1070
     1
1070
    40
1040
2.0
1002
}
  0
LINE
  5
1C623
330
1B896
100
AcDbEntity
  8
AM_5
100
AcDbLine
 10
4663.753164797042
 20
118.797839892246
 30
0.0
 11
4652.753164797043
 21
118.797839892246
 31
0.0
1001
ACAD_DSTYLE_DIMINSPECT
1070
   393
1070
     0
1001
ACAD
1000
DSTYLE
1002
{
1070
   174
1070
     1
1070
    40
1040
2.0
1002
}
  0
LINE
  5
1C624
330
1B896
100
AcDbEntity
  8
AM_5
100
AcDbLine
 10
4667.753164797042
 20
201.7126830435638
 30
0.0
 11
4667.753164797042
 21
102.7978398922461
 31
0.0
1001
ACAD_DSTYLE_DIMINSPECT
1070
   393
1070
     0
1001
ACAD
1000
DSTYLE
1002
{
1070
   173
1070
     1
1070
   174
1070
     1
1070
    40
1040
2.0
1002
}
  0
LINE
  5
1C625
330
1B896
100
AcDbEntity
  8
AM_5
100
AcDbLine
 10
4640.253164797043
 20
174.7126830435638
 30
0.0
 11
4640.253164797043
 21
102.7978398922461
 31
0.0
1001
ACAD_DSTYLE_DIMINSPECT
1070
   393
1070
     0
1001
ACAD
1000
DSTYLE
1002
{
1070
   173
1070
     1
1070
   174
1070
     1
1070
    40
1040
2.0
1002
}
  0
LINE
  5
1C626
330
1B896
100
AcDbEntity
  8
AM_5
100
AcDbLine
 10
4667.753164797042
 20
104.7978398922461
 30
0.0
 11
4640.253164797043
 21
104.7978398922461
 31
0.0
1001
ACAD_DSTYLE_DIMINSPECT
1070
   393
1070
     0
1001
ACAD
1000
DSTYLE
1002
{
1070
   173
1070
     1
1070
   174
1070
     1
1070
    40
1040
2.0
1002
}
  0
LINE
  5
1C627
330
1B896
100
AcDbEntity
  8
AM_5
100
AcDbLine
 10
4956.753183413943
 20
182.2126830435638
 30
0.0
 11
4956.753183413943
 21
88.79783989224614
 31
0.0
1001
ACAD_DSTYLE_DIMINSPECT
1070
   393
1070
     0
1001
ACAD
1000
DSTYLE
1002
{
1070
    72
1070
     0
1070
    71
1070
     0
1002
}
  0
LINE
  5
1C628
330
1B896
100
AcDbEntity
  8
AM_5
100
AcDbLine
 10
4640.253164797043
 20
174.7126830435638
 30
0.0
 11
4640.253164797043
 21
88.79783989224614
 31
0.0
1001
ACAD_DSTYLE_DIMINSPECT
1070
   393
1070
     0
1001
ACAD
1000
DSTYLE
1002
{
1070
    72
1070
     0
1070
    71
1070
     0
1002
}
  0
LINE
  5
1C629
330
1B896
100
AcDbEntity
  8
AM_5
100
AcDbLine
 10
4956.753183413943
 20
90.79783989224614
 30
0.0
 11
4640.253164797043
 21
90.79783989224614
 31
0.0
1001
ACAD_DSTYLE_DIMINSPECT
1070
   393
1070
     0
1001
ACAD
1000
DSTYLE
1002
{
1070
    72
1070
     0
1070
    71
1070
     0
1002
}
  0
LINE
  5
1C62A
330
1B896
100
AcDbEntity
  8
AM_5
100
AcDbLine
 10
4929.253183413942
 20
201.7126830435638
 30
0.0
 11
4929.253183413942
 21
102.7978398922461
 31
0.0
1001
ACAD_DSTYLE_DIMINSPECT
1070
   393
1070
     0
1001
ACAD
1000
DSTYLE
1002
{
1070
   173
1070
     1
1070
   174
1070
     1
1070
    40
1040
2.0
1002
}
  0
LINE
  5
1C62B
330
1B896
100
AcDbEntity
  8
AM_5
100
AcDbLine
 10
4956.753183413943
 20
182.2126830435638
 30
0.0
 11
4956.753183413943
 21
102.7978398922461
 31
0.0
1001
ACAD_DSTYLE_DIMINSPECT
1070
   393
1070
     0
1001
ACAD
1000
DSTYLE
1002
{
1070
   173
1070
     1
1070
   174
1070
     1
1070
    40
1040
2.0
1002
}
  0
LINE
  5
1C62C
330
1B896
100
AcDbEntity
  8
AM_5
100
AcDbLine
 10
4929.253183413942
 20
104.7978398922461
 30
0.0
 11
4956.753183413943
 21
104.7978398922461
 31
0.0
1001
ACAD_DSTYLE_DIMINSPECT
1070
   393
1070
     0
1001
ACAD
1000
DSTYLE
1002
{
1070
   173
1070
     1
1070
   174
1070
     1
1070
    40
1040
2.0
1002
}
  0
LINE
  5
1C62D
330
1B896
100
AcDbEntity
  8
AM_5
100
AcDbLine
 10
4944.253183413943
 20
163.4449393901775
 30
0.0
 11
4944.253183413943
 21
116.797839892246
 31
0.0
1001
ACAD_DSTYLE_DIMINSPECT
1070
   393
1070
     0
1001
ACAD
1000
DSTYLE
1002
{
1070
   174
1070
     1
1070
    40
1040
2.0
1002
}
  0
LINE
  5
1C62E
330
1B896
100
AcDbEntity
  8
AM_5
100
AcDbLine
 10
4956.753183413943
 20
199.7126830435638
 30
0.0
 11
4956.753183413943
 21
116.797839892246
 31
0.0
1001
ACAD_DSTYLE_DIMINSPECT
1070
   393
1070
     0
1001
ACAD
1000
DSTYLE
1002
{
1070
   174
1070
     1
1070
    40
1040
2.0
1002
}
  0
LINE
  5
1C62F
330
1B896
100
AcDbEntity
  8
AM_5
100
AcDbLine
 10
4956.753183413943
 20
118.797839892246
 30
0.0
 11
4978.974760718999
 21
118.797839892246
 31
0.0
1001
ACAD_DSTYLE_DIMINSPECT
1070
   393
1070
     0
1001
ACAD
1000
DSTYLE
1002
{
1070
   174
1070
     1
1070
    40
1040
2.0
1002
}
  0
LINE
  5
1C630
330
1B896
100
AcDbEntity
  8
AM_5
100
AcDbLine
 10
4944.253183413943
 20
118.797839892246
 30
0.0
 11
4956.753183413943
 21
118.797839892246
 31
0.0
1001
ACAD_DSTYLE_DIMINSPECT
1070
   393
1070
     0
1001
ACAD
1000
DSTYLE
1002
{
1070
   174
1070
     1
1070
    40
1040
2.0
1002
}
  0
LINE
  5
1C631
330
1B896
100
AcDbEntity
  8
AM_5
100
AcDbLine
 10
4933.253183413943
 20
190.7126830435638
 30
0.0
 11
4933.253183413943
 21
116.797839892246
 31
0.0
1001
ACAD_DSTYLE_DIMINSPECT
1070
   393
1070
     0
1001
ACAD
1000
DSTYLE
1002
{
1070
   174
1070
     1
1070
    40
1040
2.0
1002
}
  0
LINE
  5
1C632
330
1B896
100
AcDbEntity
  8
AM_5
100
AcDbLine
 10
4944.253183413943
 20
163.4449393901775
 30
0.0
 11
4944.253183413943
 21
116.797839892246
 31
0.0
1001
ACAD_DSTYLE_DIMINSPECT
1070
   393
1070
     0
1001
ACAD
1000
DSTYLE
1002
{
1070
   174
1070
     1
1070
    40
1040
2.0
1002
}
  0
LINE
  5
1C633
330
1B896
100
AcDbEntity
  8
AM_5
100
AcDbLine
 10
4933.253183413943
 20
118.797839892246
 30
0.0
 11
4944.253183413943
 21
118.797839892246
 31
0.0
1001
ACAD_DSTYLE_DIMINSPECT
1070
   393
1070
     0
1001
ACAD
1000
DSTYLE
1002
{
1070
   174
1070
     1
1070
    40
1040
2.0
1002
}
  0
LINE
  5
1C634
330
1B896
100
AcDbEntity
  8
AM_5
100
AcDbLine
 10
4663.753164797042
 20
190.7126830435638
 30
0.0
 11
4663.753164797042
 21
116.797839892246
 31
0.0
1001
ACAD_DSTYLE_DIMINSPECT
1070
   393
1070
     0
1001
ACAD
1000
DSTYLE
1002
{
1070
    72
1070
     0
1070
    71
1070
     0
1002
}
  0
LINE
  5
1C635
330
1B896
100
AcDbEntity
  8
AM_5
100
AcDbLine
 10
4933.253183413943
 20
190.7126830435638
 30
0.0
 11
4933.253183413943
 21
116.797839892246
 31
0.0
1001
ACAD_DSTYLE_DIMINSPECT
1070
   393
1070
     0
1001
ACAD
1000
DSTYLE
1002
{
1070
    72
1070
     0
1070
    71
1070
     0
1002
}
  0
LINE
  5
1C636
330
1B896
100
AcDbEntity
  8
AM_5
100
AcDbLine
 10
4663.753164797042
 20
118.797839892246
 30
0.0
 11
4933.253183413943
 21
118.797839892246
 31
0.0
1001
ACAD_DSTYLE_DIMINSPECT
1070
   393
1070
     0
1001
ACAD
1000
DSTYLE
1002
{
1070
    72
1070
     0
1070
    71
1070
     0
1002
}
  0
LINE
  5
1C637
330
1B896
100
AcDbEntity
  8
AM_5
100
AcDbLine
 10
4671.753164797042
 20
196.7126830435638
 30
0.0
 11
4671.753164797042
 21
130.797839892246
 31
0.0
1001
ACAD_DSTYLE_DIMINSPECT
1070
   393
1070
     0
1001
ACAD
1000
DSTYLE
1002
{
1070
   170
1070
     0
1070
    72
1070
     0
1070
    71
1070
     0
1070
   173
1070
     1
1002
}
  0
LINE
  5
1C638
330
1B896
100
AcDbEntity
  8
AM_5
100
AcDbLine
 10
4667.753164797042
 20
201.7126830435638
 30
0.0
 11
4667.753164797042
 21
130.797839892246
 31
0.0
1001
ACAD_DSTYLE_DIMINSPECT
1070
   393
1070
     0
1001
ACAD
1000
DSTYLE
1002
{
1070
   170
1070
     0
1070
    72
1070
     0
1070
    71
1070
     0
1070
   173
1070
     1
1002
}
  0
LINE
  5
1C639
330
1B896
100
AcDbEntity
  8
AM_5
100
AcDbLine
 10
4671.753164797042
 20
132.797839892246
 30
0.0
 11
4682.70239361048
 21
132.797839892246
 31
0.0
1001
ACAD_DSTYLE_DIMINSPECT
1070
   393
1070
     0
1001
ACAD
1000
DSTYLE
1002
{
1070
   170
1070
     0
1070
    72
1070
     0
1070
    71
1070
     0
1070
   173
1070
     1
1002
}
  0
LINE
  5
1C63A
330
1B896
100
AcDbEntity
  8
AM_5
100
AcDbLine
 10
4671.753164797042
 20
132.797839892246
 30
0.0
 11
4667.753164797042
 21
132.797839892246
 31
0.0
1001
ACAD_DSTYLE_DIMINSPECT
1070
   393
1070
     0
1001
ACAD
1000
DSTYLE
1002
{
1070
   170
1070
     0
1070
    72
1070
     0
1070
    71
1070
     0
1070
   173
1070
     1
1002
}
  0
LINE
  5
1C63B
330
1B896
100
AcDbEntity
  8
AM_5
100
AcDbLine
 10
4925.253164797043
 20
196.7126830435638
 30
0.0
 11
4925.253164797043
 21
130.797839892246
 31
0.0
1001
ACAD_DSTYLE_DIMINSPECT
1070
   393
1070
     0
1001
ACAD
1000
DSTYLE
1002
{
1070
   173
1070
     1
1002
}
  0
LINE
  5
1C63C
330
1B896
100
AcDbEntity
  8
AM_5
100
AcDbLine
 10
4929.253183413942
 20
201.7126830435638
 30
0.0
 11
4929.253183413942
 21
130.797839892246
 31
0.0
1001
ACAD_DSTYLE_DIMINSPECT
1070
   393
1070
     0
1001
ACAD
1000
DSTYLE
1002
{
1070
   173
1070
     1
1002
}
  0
LINE
  5
1C63D
330
1B896
100
AcDbEntity
  8
AM_5
100
AcDbLine
 10
4925.253164797043
 20
132.797839892246
 30
0.0
 11
4914.152558828307
 21
132.797839892246
 31
0.0
1001
ACAD_DSTYLE_DIMINSPECT
1070
   393
1070
     0
1001
ACAD
1000
DSTYLE
1002
{
1070
   173
1070
     1
1002
}
  0
LINE
  5
1C63E
330
1B896
100
AcDbEntity
  8
AM_5
100
AcDbLine
 10
4925.253164797043
 20
132.797839892246
 30
0.0
 11
4929.253183413942
 21
132.797839892246
 31
0.0
1001
ACAD_DSTYLE_DIMINSPECT
1070
   393
1070
     0
1001
ACAD
1000
DSTYLE
1002
{
1070
   173
1070
     1
1002
}
  0
LINE
  5
1C63F
330
1B896
100
AcDbEntity
  8
AM_5
100
AcDbLine
 10
4671.753164797042
 20
196.7126830435638
 30
0.0
 11
4671.753164797042
 21
130.797839892246
 31
0.0
1001
ACAD_DSTYLE_DIMINSPECT
1070
   393
1070
     0
1001
ACAD
1000
DSTYLE
1002
{
1070
    72
1070
     0
1070
    71
1070
     0
1002
}
  0
LINE
  5
1C640
330
1B896
100
AcDbEntity
  8
AM_5
100
AcDbLine
 10
4925.253164797043
 20
196.7126830435638
 30
0.0
 11
4925.253164797043
 21
130.797839892246
 31
0.0
1001
ACAD_DSTYLE_DIMINSPECT
1070
   393
1070
     0
1001
ACAD
1000
DSTYLE
1002
{
1070
    72
1070
     0
1070
    71
1070
     0
1002
}
  0
LINE
  5
1C641
330
1B896
100
AcDbEntity
  8
AM_5
100
AcDbLine
 10
4671.753164797042
 20
132.797839892246
 30
0.0
 11
4925.253164797043
 21
132.797839892246
 31
0.0
1001
ACAD_DSTYLE_DIMINSPECT
1070
   393
1070
     0
1001
ACAD
1000
DSTYLE
1002
{
1070
    72
1070
     0
1070
    71
1070
     0
1002
}
  0
LINE
  5
1C642
330
1B896
100
AcDbEntity
  8
AM_5
100
AcDbLine
 10
4736.378164797042
 20
232.7126830435638
 30
0.0
 11
4760.378164797042
 21
232.7126830435638
 31
0.0
1001
ACAD_DSTYLE_DIMINSPECT
1070
   393
1070
     0
  0
LINE
  5
1C643
330
1B896
100
AcDbEntity
  8
AM_5
100
AcDbLine
 10
4665.753164797043
 20
192.7126830435638
 30
0.0
 11
4760.378164797042
 21
192.7126830435638
 31
0.0
1001
ACAD_DSTYLE_DIMINSPECT
1070
   393
1070
     0
  0
LINE
  5
1C644
330
1B896
100
AcDbEntity
  8
AM_5
100
AcDbLine
 10
4758.378164797043
 20
232.7126830435638
 30
0.0
 11
4758.378164797043
 21
192.7126830435638
 31
0.0
1001
ACAD_DSTYLE_DIMINSPECT
1070
   393
1070
     0
  0
LINE
  5
1C645
330
1B896
100
AcDbEntity
  8
AM_5
100
AcDbLine
 10
4661.753164797043
 20
198.7126830435638
 30
0.0
 11
4622.466424188913
 21
198.7126830435638
 31
0.0
1001
ACAD_DSTYLE_DIMINSPECT
1070
   393
1070
     0
1001
ACAD
1000
DSTYLE
1002
{
1070
   173
1070
     1
1002
}
  0
LINE
  5
1C646
330
1B896
100
AcDbEntity
  8
AM_5
100
AcDbLine
 10
4661.753164797043
 20
192.7126830435638
 30
0.0
 11
4622.466424188913
 21
192.7126830435638
 31
0.0
1001
ACAD_DSTYLE_DIMINSPECT
1070
   393
1070
     0
1001
ACAD
1000
DSTYLE
1002
{
1070
   173
1070
     1
1002
}
  0
LINE
  5
1C647
330
1B896
100
AcDbEntity
  8
AM_5
100
AcDbLine
 10
4624.466424188913
 20
198.7126830435638
 30
0.0
 11
4624.466424188913
 21
192.7126830435638
 31
0.0
1001
ACAD_DSTYLE_DIMINSPECT
1070
   393
1070
     0
1001
ACAD
1000
DSTYLE
1002
{
1070
   173
1070
     1
1002
}
  0
LINE
  5
1C648
330
1B896
100
AcDbEntity
  8
AM_5
100
AcDbLine
 10
4624.466424188913
 20
198.7126830435638
 30
0.0
 11
4624.466424188913
 21
200.7126830435638
 31
0.0
1001
ACAD_DSTYLE_DIMINSPECT
1070
   393
1070
     0
1001
ACAD
1000
DSTYLE
1002
{
1070
   173
1070
     1
1002
}
  0
LINE
  5
1C649
330
1B896
100
AcDbEntity
  8
AM_5
100
AcDbLine
 10
4624.466424188913
 20
192.7126830435638
 30
0.0
 11
4624.466424188913
 21
190.7126830435638
 31
0.0
1001
ACAD_DSTYLE_DIMINSPECT
1070
   393
1070
     0
1001
ACAD
1000
DSTYLE
1002
{
1070
   173
1070
     1
1002
}
  0
LINE
  5
1C64A
330
1B896
100
AcDbEntity
  8
AM_5
100
AcDbLine
 10
4661.753164797043
 20
198.7126830435638
 30
0.0
 11
4622.466424188913
 21
198.7126830435638
 31
0.0
1001
ACAD_DSTYLE_DIMINSPECT
1070
   393
1070
     0
1001
ACAD
1000
DSTYLE
1002
{
1070
   173
1070
     1
1002
}
  0
LINE
  5
1C64B
330
1B896
100
AcDbEntity
  8
AM_5
100
AcDbLine
 10
4638.253164797043
 20
201.7126830435638
 30
0.0
 11
4622.466424188913
 21
201.7126830435638
 31
0.0
1001
ACAD_DSTYLE_DIMINSPECT
1070
   393
1070
     0
1001
ACAD
1000
DSTYLE
1002
{
1070
   173
1070
     1
1002
}
  0
LINE
  5
1C64C
330
1B896
100
AcDbEntity
  8
AM_5
100
AcDbLine
 10
4624.466424188913
 20
201.7126830435638
 30
0.0
 11
4624.466424188913
 21
213.5931980136744
 31
0.0
1001
ACAD_DSTYLE_DIMINSPECT
1070
   393
1070
     0
1001
ACAD
1000
DSTYLE
1002
{
1070
   173
1070
     1
1002
}
  0
LINE
  5
1C64D
330
1B896
100
AcDbEntity
  8
AM_5
100
AcDbLine
 10
4624.466424188913
 20
198.7126830435638
 30
0.0
 11
4624.466424188913
 21
201.7126830435638
 31
0.0
1001
ACAD_DSTYLE_DIMINSPECT
1070
   393
1070
     0
1001
ACAD
1000
DSTYLE
1002
{
1070
   173
1070
     1
1002
}
  0
LINE
  5
1C64E
330
1B896
100
AcDbEntity
  8
AM_5
100
AcDbLine
 10
4624.466424188913
 20
198.7126830435638
 30
0.0
 11
4624.466424188913
 21
196.7126830435638
 31
0.0
1001
ACAD_DSTYLE_DIMINSPECT
1070
   393
1070
     0
1001
ACAD
1000
DSTYLE
1002
{
1070
   173
1070
     1
1002
}
  0
LINE
  5
1C64F
330
1B896
100
AcDbEntity
  8
AM_5
100
AcDbLine
 10
4638.253164797043
 20
201.7126830435638
 30
0.0
 11
4599.959299864305
 21
201.7126830435638
 31
0.0
1001
ACAD_DSTYLE_DIMINSPECT
1070
   393
1070
     0
1001
ACAD
1000
DSTYLE
1002
{
1070
   174
1070
     1
1070
    40
1040
2.0
1002
}
  0
LINE
  5
1C650
330
1B896
100
AcDbEntity
  8
AM_5
100
AcDbLine
 10
4638.253164797043
 20
176.7126830435638
 30
0.0
 11
4599.959299864305
 21
176.7126830435638
 31
0.0
1001
ACAD_DSTYLE_DIMINSPECT
1070
   393
1070
     0
1001
ACAD
1000
DSTYLE
1002
{
1070
   174
1070
     1
1070
    40
1040
2.0
1002
}
  0
LINE
  5
1C651
330
1B896
100
AcDbEntity
  8
AM_5
100
AcDbLine
 10
4601.959299864305
 20
201.7126830435638
 30
0.0
 11
4601.959299864305
 21
176.7126830435638
 31
0.0
1001
ACAD_DSTYLE_DIMINSPECT
1070
   393
1070
     0
1001
ACAD
1000
DSTYLE
1002
{
1070
   174
1070
     1
1070
    40
1040
2.0
1002
}
  0
LINE
  5
1C652
330
1B896
100
AcDbEntity
  8
AM_5
100
AcDbLine
 10
4638.253164797043
 20
276.7126830435638
 30
0.0
 11
4599.959299864305
 21
276.7126830435638
 31
0.0
1001
ACAD_DSTYLE_DIMINSPECT
1070
   393
1070
     0
1001
ACAD
1000
DSTYLE
1002
{
1070
   174
1070
     1
1002
}
  0
LINE
  5
1C653
330
1B896
100
AcDbEntity
  8
AM_5
100
AcDbLine
 10
4638.253164797043
 20
201.7126830435638
 30
0.0
 11
4599.959299864305
 21
201.7126830435638
 31
0.0
1001
ACAD_DSTYLE_DIMINSPECT
1070
   393
1070
     0
1001
ACAD
1000
DSTYLE
1002
{
1070
   174
1070
     1
1002
}
  0
LINE
  5
1C654
330
1B896
100
AcDbEntity
  8
AM_5
100
AcDbLine
 10
4601.959299864305
 20
276.7126830435638
 30
0.0
 11
4601.959299864305
 21
201.7126830435638
 31
0.0
1001
ACAD_DSTYLE_DIMINSPECT
1070
   393
1070
     0
1001
ACAD
1000
DSTYLE
1002
{
1070
   174
1070
     1
1002
}
  0
LINE
  5
1C655
330
1B896
100
AcDbEntity
  8
AM_5
100
AcDbLine
 10
4638.253164797043
 20
276.7126830435638
 30
0.0
 11
4610.389171643697
 21
276.7126830435638
 31
0.0
1001
ACAD_DSTYLE_DIMINSPECT
1070
   393
1070
     0
  0
LINE
  5
1C656
330
1B896
100
AcDbEntity
  8
AM_5
100
AcDbLine
 10
4611.598063560808
 20
244.7126830435639
 30
0.0
 11
4610.389171643697
 21
244.7126830435639
 31
0.0
1001
ACAD_DSTYLE_DIMINSPECT
1070
   393
1070
     0
  0
LINE
  5
1C657
330
1B896
100
AcDbEntity
  8
AM_5
100
AcDbLine
 10
4612.389171643697
 20
276.7126830435638
 30
0.0
 11
4612.389171643697
 21
244.7126830435639
 31
0.0
1001
ACAD_DSTYLE_DIMINSPECT
1070
   393
1070
     0
  0
LINE
  5
1C658
330
1B896
100
AcDbEntity
  8
CONT_S_2
100
AcDbLine
 10
4930.365884940045
 20
240.1126830435639
 30
0.0
 11
4934.965884940045
 21
244.7126830435639
 31
0.0
1001
GENIUS_GENOBJ-N-HTC_13
1002
{
1000
OWNER
1000
GEN
1002
}
1001
GENIUS_GENODEF_13
1002
{
1000
HIER
1070
     0
1002
}
1002
{
1000
MANEDIT
1070
     0
1002
}
1002
{
1000
NOSEL
1070
     0
1002
}
1002
{
1000
BEHIND
1070
     0
1002
}
1002
{
1000
OTHER
1070
     0
1002
}
1002
{
1000
REACTOR
1002
}
1001
GENIUS_GENHATCH_13
1002
{
1000
DATA
1040
45.0
1042
2.5
1000
_U
1070
     0
1011
4946.713445107321
1021
213.1111506765122
1031
0.0
1002
}
1002
{
1000
UCS
1010
0.0
1020
0.0
1030
0.0
1010
1.0
1020
0.0
1030
0.0
1010
0.0
1020
1.0
1030
0.0
1002
}
1001
HATCHBACKGROUNDCOLOR
1071
-939524096
1000

1000

  0
LINE
  5
1C659
330
1B896
100
AcDbEntity
  8
CONT_S_2
100
AcDbLine
 10
4929.253183413942
 20
230.5147001432213
 30
0.0
 11
4935.451167314284
 21
236.7126840435639
 31
0.0
1001
GENIUS_GENOBJ-N-HTC_13
1002
{
1000
OWNER
1000
GEN
1002
}
1001
GENIUS_GENODEF_13
1002
{
1000
HIER
1070
     0
1002
}
1002
{
1000
MANEDIT
1070
     0
1002
}
1002
{
1000
NOSEL
1070
     0
1002
}
1002
{
1000
BEHIND
1070
     0
1002
}
1002
{
1000
OTHER
1070
     0
1002
}
1002
{
1000
REACTOR
1002
}
1001
GENIUS_GENHATCH_13
1002
{
1000
DATA
1040
45.0
1042
2.5
1000
_U
1070
     0
1011
4946.713445107321
1021
213.1111506765122
1031
0.0
1002
}
1002
{
1000
UCS
1010
0.0
1020
0.0
1030
0.0
1010
1.0
1020
0.0
1030
0.0
1010
0.0
1020
1.0
1030
0.0
1002
}
1001
HATCHBACKGROUNDCOLOR
1071
-939524096
1000

1000

  0
LINE
  5
1C65A
330
1B896
100
AcDbEntity
  8
CONT_S_2
100
AcDbLine
 10
4937.253183413943
 20
238.5147001432213
 30
0.0
 11
4943.451166314286
 21
244.7126830435639
 31
0.0
1001
GENIUS_GENOBJ-N-HTC_13
1002
{
1000
OWNER
1000
GEN
1002
}
1001
GENIUS_GENODEF_13
1002
{
1000
HIER
1070
     0
1002
}
1002
{
1000
MANEDIT
1070
     0
1002
}
1002
{
1000
NOSEL
1070
     0
1002
}
1002
{
1000
BEHIND
1070
     0
1002
}
1002
{
1000
OTHER
1070
     0
1002
}
1002
{
1000
REACTOR
1002
}
1001
GENIUS_GENHATCH_13
1002
{
1000
DATA
1040
45.0
1042
2.5
1000
_U
1070
     0
1011
4946.713445107321
1021
213.1111506765122
1031
0.0
1002
}
1002
{
1000
UCS
1010
0.0
1020
0.0
1030
0.0
1010
1.0
1020
0.0
1030
0.0
1010
0.0
1020
1.0
1030
0.0
1002
}
1001
HATCHBACKGROUNDCOLOR
1071
-939524096
1000

1000

  0
LINE
  5
1C65B
330
1B896
100
AcDbEntity
  8
CONT_S_2
100
AcDbLine
 10
4929.253183413942
 20
222.0294187689828
 30
0.0
 11
4951.936447688524
 21
244.7126830435639
 31
0.0
1001
GENIUS_GENOBJ-N-HTC_13
1002
{
1000
OWNER
1000
GEN
1002
}
1001
GENIUS_GENODEF_13
1002
{
1000
HIER
1070
     0
1002
}
1002
{
1000
MANEDIT
1070
     0
1002
}
1002
{
1000
NOSEL
1070
     0
1002
}
1002
{
1000
BEHIND
1070
     0
1002
}
1002
{
1000
OTHER
1070
     0
1002
}
1002
{
1000
REACTOR
1002
}
1001
GENIUS_GENHATCH_13
1002
{
1000
DATA
1040
45.0
1042
2.5
1000
_U
1070
     0
1011
4946.713445107321
1021
213.1111506765122
1031
0.0
1002
}
1002
{
1000
UCS
1010
0.0
1020
0.0
1030
0.0
1010
1.0
1020
0.0
1030
0.0
1010
0.0
1020
1.0
1030
0.0
1002
}
1001
HATCHBACKGROUNDCOLOR
1071
-939524096
1000

1000

  0
LINE
  5
1C65C
330
1B896
100
AcDbEntity
  8
CONT_S_2
100
AcDbLine
 10
4929.253183413942
 20
213.5441373947442
 30
0.0
 11
4956.753183413943
 21
241.0441373947441
 31
0.0
1001
GENIUS_GENOBJ-N-HTC_13
1002
{
1000
OWNER
1000
GEN
1002
}
1001
GENIUS_GENODEF_13
1002
{
1000
HIER
1070
     0
1002
}
1002
{
1000
MANEDIT
1070
     0
1002
}
1002
{
1000
NOSEL
1070
     0
1002
}
1002
{
1000
BEHIND
1070
     0
1002
}
1002
{
1000
OTHER
1070
     0
1002
}
1002
{
1000
REACTOR
1002
}
1001
GENIUS_GENHATCH_13
1002
{
1000
DATA
1040
45.0
1042
2.5
1000
_U
1070
     0
1011
4946.713445107321
1021
213.1111506765122
1031
0.0
1002
}
1002
{
1000
UCS
1010
0.0
1020
0.0
1030
0.0
1010
1.0
1020
0.0
1030
0.0
1010
0.0
1020
1.0
1030
0.0
1002
}
1001
HATCHBACKGROUNDCOLOR
1071
-939524096
1000

1000

  0
LINE
  5
1C65D
330
1B896
100
AcDbEntity
  8
CONT_S_2
100
AcDbLine
 10
4929.253183413942
 20
205.0588560205056
 30
0.0
 11
4956.753183413943
 21
232.5588560205056
 31
0.0
1001
GENIUS_GENOBJ-N-HTC_13
1002
{
1000
OWNER
1000
GEN
1002
}
1001
GENIUS_GENODEF_13
1002
{
1000
HIER
1070
     0
1002
}
1002
{
1000
MANEDIT
1070
     0
1002
}
1002
{
1000
NOSEL
1070
     0
1002
}
1002
{
1000
BEHIND
1070
     0
1002
}
1002
{
1000
OTHER
1070
     0
1002
}
1002
{
1000
REACTOR
1002
}
1001
GENIUS_GENHATCH_13
1002
{
1000
DATA
1040
45.0
1042
2.5
1000
_U
1070
     0
1011
4946.713445107321
1021
213.1111506765122
1031
0.0
1002
}
1002
{
1000
UCS
1010
0.0
1020
0.0
1030
0.0
1010
1.0
1020
0.0
1030
0.0
1010
0.0
1020
1.0
1030
0.0
1002
}
1001
HATCHBACKGROUNDCOLOR
1071
-939524096
1000

1000

  0
LINE
  5
1C65E
330
1B896
100
AcDbEntity
  8
CONT_S_2
100
AcDbLine
 10
4934.392291811239
 20
201.7126830435638
 30
0.0
 11
4956.753183413943
 21
224.0735746462671
 31
0.0
1001
GENIUS_GENOBJ-N-HTC_13
1002
{
1000
OWNER
1000
GEN
1002
}
1001
GENIUS_GENODEF_13
1002
{
1000
HIER
1070
     0
1002
}
1002
{
1000
MANEDIT
1070
     0
1002
}
1002
{
1000
NOSEL
1070
     0
1002
}
1002
{
1000
BEHIND
1070
     0
1002
}
1002
{
1000
OTHER
1070
     0
1002
}
1002
{
1000
REACTOR
1002
}
1001
GENIUS_GENHATCH_13
1002
{
1000
DATA
1040
45.0
1042
2.5
1000
_U
1070
     0
1011
4946.713445107321
1021
213.1111506765122
1031
0.0
1002
}
1002
{
1000
UCS
1010
0.0
1020
0.0
1030
0.0
1010
1.0
1020
0.0
1030
0.0
1010
0.0
1020
1.0
1030
0.0
1002
}
1001
HATCHBACKGROUNDCOLOR
1071
-939524096
1000

1000

  0
LINE
  5
1C65F
330
1B896
100
AcDbEntity
  8
CONT_S_2
100
AcDbLine
 10
4942.877573185477
 20
201.7126830435638
 30
0.0
 11
4956.753183413943
 21
215.5882932720285
 31
0.0
1001
GENIUS_GENOBJ-N-HTC_13
1002
{
1000
OWNER
1000
GEN
1002
}
1001
GENIUS_GENODEF_13
1002
{
1000
HIER
1070
     0
1002
}
1002
{
1000
MANEDIT
1070
     0
1002
}
1002
{
1000
NOSEL
1070
     0
1002
}
1002
{
1000
BEHIND
1070
     0
1002
}
1002
{
1000
OTHER
1070
     0
1002
}
1002
{
1000
REACTOR
1002
}
1001
GENIUS_GENHATCH_13
1002
{
1000
DATA
1040
45.0
1042
2.5
1000
_U
1070
     0
1011
4946.713445107321
1021
213.1111506765122
1031
0.0
1002
}
1002
{
1000
UCS
1010
0.0
1020
0.0
1030
0.0
1010
1.0
1020
0.0
1030
0.0
1010
0.0
1020
1.0
1030
0.0
1002
}
1001
HATCHBACKGROUNDCOLOR
1071
-939524096
1000

1000

  0
LINE
  5
1C660
330
1B896
100
AcDbEntity
  8
CONT_S_2
100
AcDbLine
 10
4951.362854559716
 20
201.7126830435638
 30
0.0
 11
4956.753183413943
 21
207.1030118977899
 31
0.0
1001
GENIUS_GENOBJ-N-HTC_13
1002
{
1000
OWNER
1000
GEN
1002
}
1001
GENIUS_GENODEF_13
1002
{
1000
HIER
1070
     0
1002
}
1002
{
1000
MANEDIT
1070
     0
1002
}
1002
{
1000
NOSEL
1070
     0
1002
}
1002
{
1000
BEHIND
1070
     0
1002
}
1002
{
1000
OTHER
1070
     0
1002
}
1002
{
1000
REACTOR
1002
}
1001
GENIUS_GENHATCH_13
1002
{
1000
DATA
1040
45.0
1042
2.5
1000
_U
1070
     0
1011
4946.713445107321
1021
213.1111506765122
1031
0.0
1002
}
1002
{
1000
UCS
1010
0.0
1020
0.0
1030
0.0
1010
1.0
1020
0.0
1030
0.0
1010
0.0
1020
1.0
1030
0.0
1002
}
1001
HATCHBACKGROUNDCOLOR
1071
-939524096
1000

1000

  0
LINE
  5
1C661
330
1B896
100
AcDbEntity
  8
CONT_S_2
100
AcDbLine
 10
4929.253183413942
 20
272.9411070144141
 30
0.0
 11
4933.024759443092
 21
276.7126830435638
 31
0.0
1001
GENIUS_GENOBJ-N-HTC_13
1002
{
1000
OWNER
1000
GEN
1002
}
1001
GENIUS_GENODEF_13
1002
{
1000
HIER
1070
     0
1002
}
1002
{
1000
MANEDIT
1070
     0
1002
}
1002
{
1000
NOSEL
1070
     0
1002
}
1002
{
1000
BEHIND
1070
     0
1002
}
1002
{
1000
OTHER
1070
     0
1002
}
1002
{
1000
REACTOR
1002
}
1001
GENIUS_GENHATCH_13
1002
{
1000
DATA
1040
45.0
1042
2.5
1000
_U
1070
     0
1011
4944.621048776096
1021
263.6275763875409
1031
0.0
1002
}
1002
{
1000
UCS
1010
0.0
1020
0.0
1030
0.0
1010
1.0
1020
0.0
1030
0.0
1010
0.0
1020
1.0
1030
0.0
1002
}
1001
HATCHBACKGROUNDCOLOR
1071
-939524096
1000

1000

  0
LINE
  5
1C662
330
1B896
100
AcDbEntity
  8
CONT_S_2
100
AcDbLine
 10
4929.253183413942
 20
264.4558256401756
 30
0.0
 11
4941.510040817331
 21
276.7126830435638
 31
0.0
1001
GENIUS_GENOBJ-N-HTC_13
1002
{
1000
OWNER
1000
GEN
1002
}
1001
GENIUS_GENODEF_13
1002
{
1000
HIER
1070
     0
1002
}
1002
{
1000
MANEDIT
1070
     0
1002
}
1002
{
1000
NOSEL
1070
     0
1002
}
1002
{
1000
BEHIND
1070
     0
1002
}
1002
{
1000
OTHER
1070
     0
1002
}
1002
{
1000
REACTOR
1002
}
1001
GENIUS_GENHATCH_13
1002
{
1000
DATA
1040
45.0
1042
2.5
1000
_U
1070
     0
1011
4944.621048776096
1021
263.6275763875409
1031
0.0
1002
}
1002
{
1000
UCS
1010
0.0
1020
0.0
1030
0.0
1010
1.0
1020
0.0
1030
0.0
1010
0.0
1020
1.0
1030
0.0
1002
}
1001
HATCHBACKGROUNDCOLOR
1071
-939524096
1000

1000

  0
LINE
  5
1C663
330
1B896
100
AcDbEntity
  8
CONT_S_2
100
AcDbLine
 10
4929.253183413942
 20
255.970544265937
 30
0.0
 11
4949.995322191569
 21
276.7126830435638
 31
0.0
1001
GENIUS_GENOBJ-N-HTC_13
1002
{
1000
OWNER
1000
GEN
1002
}
1001
GENIUS_GENODEF_13
1002
{
1000
HIER
1070
     0
1002
}
1002
{
1000
MANEDIT
1070
     0
1002
}
1002
{
1000
NOSEL
1070
     0
1002
}
1002
{
1000
BEHIND
1070
     0
1002
}
1002
{
1000
OTHER
1070
     0
1002
}
1002
{
1000
REACTOR
1002
}
1001
GENIUS_GENHATCH_13
1002
{
1000
DATA
1040
45.0
1042
2.5
1000
_U
1070
     0
1011
4944.621048776096
1021
263.6275763875409
1031
0.0
1002
}
1002
{
1000
UCS
1010
0.0
1020
0.0
1030
0.0
1010
1.0
1020
0.0
1030
0.0
1010
0.0
1020
1.0
1030
0.0
1002
}
1001
HATCHBACKGROUNDCOLOR
1071
-939524096
1000

1000

  0
LINE
  5
1C664
330
1B896
100
AcDbEntity
  8
CONT_S_2
100
AcDbLine
 10
4929.253183413942
 20
247.4852628916984
 30
0.0
 11
4931.080603565808
 21
249.3126830435639
 31
0.0
1001
GENIUS_GENOBJ-N-HTC_13
1002
{
1000
OWNER
1000
GEN
1002
}
1001
GENIUS_GENODEF_13
1002
{
1000
HIER
1070
     0
1002
}
1002
{
1000
MANEDIT
1070
     0
1002
}
1002
{
1000
NOSEL
1070
     0
1002
}
1002
{
1000
BEHIND
1070
     0
1002
}
1002
{
1000
OTHER
1070
     0
1002
}
1002
{
1000
REACTOR
1002
}
1001
GENIUS_GENHATCH_13
1002
{
1000
DATA
1040
45.0
1042
2.5
1000
_U
1070
     0
1011
4944.621048776096
1021
263.6275763875409
1031
0.0
1002
}
1002
{
1000
UCS
1010
0.0
1020
0.0
1030
0.0
1010
1.0
1020
0.0
1030
0.0
1010
0.0
1020
1.0
1030
0.0
1002
}
1001
HATCHBACKGROUNDCOLOR
1071
-939524096
1000

1000

  0
LINE
  5
1C665
330
1B896
100
AcDbEntity
  8
CONT_S_2
100
AcDbLine
 10
4934.480602565809
 20
252.7126820435648
 30
0.0
 11
4956.753183413943
 21
274.9852628916984
 31
0.0
1001
GENIUS_GENOBJ-N-HTC_13
1002
{
1000
OWNER
1000
GEN
1002
}
1001
GENIUS_GENODEF_13
1002
{
1000
HIER
1070
     0
1002
}
1002
{
1000
MANEDIT
1070
     0
1002
}
1002
{
1000
NOSEL
1070
     0
1002
}
1002
{
1000
BEHIND
1070
     0
1002
}
1002
{
1000
OTHER
1070
     0
1002
}
1002
{
1000
REACTOR
1002
}
1001
GENIUS_GENHATCH_13
1002
{
1000
DATA
1040
45.0
1042
2.5
1000
_U
1070
     0
1011
4944.621048776096
1021
263.6275763875409
1031
0.0
1002
}
1002
{
1000
UCS
1010
0.0
1020
0.0
1030
0.0
1010
1.0
1020
0.0
1030
0.0
1010
0.0
1020
1.0
1030
0.0
1002
}
1001
HATCHBACKGROUNDCOLOR
1071
-939524096
1000

1000

  0
LINE
  5
1C666
330
1B896
100
AcDbEntity
  8
CONT_S_2
100
AcDbLine
 10
4934.965884940045
 20
244.7126830435639
 30
0.0
 11
4956.753183413943
 21
266.4999815174598
 31
0.0
1001
GENIUS_GENOBJ-N-HTC_13
1002
{
1000
OWNER
1000
GEN
1002
}
1001
GENIUS_GENODEF_13
1002
{
1000
HIER
1070
     0
1002
}
1002
{
1000
MANEDIT
1070
     0
1002
}
1002
{
1000
NOSEL
1070
     0
1002
}
1002
{
1000
BEHIND
1070
     0
1002
}
1002
{
1000
OTHER
1070
     0
1002
}
1002
{
1000
REACTOR
1002
}
1001
GENIUS_GENHATCH_13
1002
{
1000
DATA
1040
45.0
1042
2.5
1000
_U
1070
     0
1011
4944.621048776096
1021
263.6275763875409
1031
0.0
1002
}
1002
{
1000
UCS
1010
0.0
1020
0.0
1030
0.0
1010
1.0
1020
0.0
1030
0.0
1010
0.0
1020
1.0
1030
0.0
1002
}
1001
HATCHBACKGROUNDCOLOR
1071
-939524096
1000

1000

  0
LINE
  5
1C667
330
1B896
100
AcDbEntity
  8
CONT_S_2
100
AcDbLine
 10
4943.451166314286
 20
244.7126830435639
 30
0.0
 11
4956.753183413943
 21
258.0147001432212
 31
0.0
1001
GENIUS_GENOBJ-N-HTC_13
1002
{
1000
OWNER
1000
GEN
1002
}
1001
GENIUS_GENODEF_13
1002
{
1000
HIER
1070
     0
1002
}
1002
{
1000
MANEDIT
1070
     0
1002
}
1002
{
1000
NOSEL
1070
     0
1002
}
1002
{
1000
BEHIND
1070
     0
1002
}
1002
{
1000
OTHER
1070
     0
1002
}
1002
{
1000
REACTOR
1002
}
1001
GENIUS_GENHATCH_13
1002
{
1000
DATA
1040
45.0
1042
2.5
1000
_U
1070
     0
1011
4944.621048776096
1021
263.6275763875409
1031
0.0
1002
}
1002
{
1000
UCS
1010
0.0
1020
0.0
1030
0.0
1010
1.0
1020
0.0
1030
0.0
1010
0.0
1020
1.0
1030
0.0
1002
}
1001
HATCHBACKGROUNDCOLOR
1071
-939524096
1000

1000

  0
LINE
  5
1C668
330
1B896
100
AcDbEntity
  8
CONT_S_2
100
AcDbLine
 10
4951.936447688524
 20
244.7126830435639
 30
0.0
 11
4956.753183413943
 21
249.5294187689827
 31
0.0
1001
GENIUS_GENOBJ-N-HTC_13
1002
{
1000
OWNER
1000
GEN
1002
}
1001
GENIUS_GENODEF_13
1002
{
1000
HIER
1070
     0
1002
}
1002
{
1000
MANEDIT
1070
     0
1002
}
1002
{
1000
NOSEL
1070
     0
1002
}
1002
{
1000
BEHIND
1070
     0
1002
}
1002
{
1000
OTHER
1070
     0
1002
}
1002
{
1000
REACTOR
1002
}
1001
GENIUS_GENHATCH_13
1002
{
1000
DATA
1040
45.0
1042
2.5
1000
_U
1070
     0
1011
4944.621048776096
1021
263.6275763875409
1031
0.0
1002
}
1002
{
1000
UCS
1010
0.0
1020
0.0
1030
0.0
1010
1.0
1020
0.0
1030
0.0
1010
0.0
1020
1.0
1030
0.0
1002
}
1001
HATCHBACKGROUNDCOLOR
1071
-939524096
1000

1000

  0
LINE
  5
1C669
330
1B896
100
AcDbEntity
  8
CONT_S_2
100
AcDbLine
 10
4640.253164797043
 20
238.4995296246701
 30
0.0
 11
4646.466318215934
 21
244.7126830435639
 31
0.0
1001
GENIUS_GENOBJ-N-HTC_13
1002
{
1000
OWNER
1000
GEN
1002
}
1001
GENIUS_GENODEF_13
1002
{
1000
HIER
1070
     0
1002
}
1002
{
1000
MANEDIT
1070
     0
1002
}
1002
{
1000
NOSEL
1070
     0
1002
}
1002
{
1000
BEHIND
1070
     0
1002
}
1002
{
1000
OTHER
1070
     0
1002
}
1002
{
1000
REACTOR
1002
}
1001
GENIUS_GENHATCH_13
1002
{
1000
DATA
1040
45.0
1042
2.5
1000
_U
1070
     0
1011
4658.560578921337
1021
221.4807360014164
1031
0.0
1002
}
1002
{
1000
UCS
1010
0.0
1020
0.0
1030
0.0
1010
1.0
1020
0.0
1030
0.0
1010
0.0
1020
1.0
1030
0.0
1002
}
1001
HATCHBACKGROUNDCOLOR
1071
-939524096
1000

1000

  0
LINE
  5
1C66A
330
1B896
100
AcDbEntity
  8
CONT_S_2
100
AcDbLine
 10
4640.253164797043
 20
230.0142482504315
 30
0.0
 11
4654.951599590172
 21
244.7126830435639
 31
0.0
1001
GENIUS_GENOBJ-N-HTC_13
1002
{
1000
OWNER
1000
GEN
1002
}
1001
GENIUS_GENODEF_13
1002
{
1000
HIER
1070
     0
1002
}
1002
{
1000
MANEDIT
1070
     0
1002
}
1002
{
1000
NOSEL
1070
     0
1002
}
1002
{
1000
BEHIND
1070
     0
1002
}
1002
{
1000
OTHER
1070
     0
1002
}
1002
{
1000
REACTOR
1002
}
1001
GENIUS_GENHATCH_13
1002
{
1000
DATA
1040
45.0
1042
2.5
1000
_U
1070
     0
1011
4658.560578921337
1021
221.4807360014164
1031
0.0
1002
}
1002
{
1000
UCS
1010
0.0
1020
0.0
1030
0.0
1010
1.0
1020
0.0
1030
0.0
1010
0.0
1020
1.0
1030
0.0
1002
}
1001
HATCHBACKGROUNDCOLOR
1071
-939524096
1000

1000

  0
LINE
  5
1C66B
330
1B896
100
AcDbEntity
  8
CONT_S_2
100
AcDbLine
 10
4640.253164797043
 20
221.5289668761929
 30
0.0
 11
4663.436880964413
 21
244.7126830435639
 31
0.0
1001
GENIUS_GENOBJ-N-HTC_13
1002
{
1000
OWNER
1000
GEN
1002
}
1001
GENIUS_GENODEF_13
1002
{
1000
HIER
1070
     0
1002
}
1002
{
1000
MANEDIT
1070
     0
1002
}
1002
{
1000
NOSEL
1070
     0
1002
}
1002
{
1000
BEHIND
1070
     0
1002
}
1002
{
1000
OTHER
1070
     0
1002
}
1002
{
1000
REACTOR
1002
}
1001
GENIUS_GENHATCH_13
1002
{
1000
DATA
1040
45.0
1042
2.5
1000
_U
1070
     0
1011
4658.560578921337
1021
221.4807360014164
1031
0.0
1002
}
1002
{
1000
UCS
1010
0.0
1020
0.0
1030
0.0
1010
1.0
1020
0.0
1030
0.0
1010
0.0
1020
1.0
1030
0.0
1002
}
1001
HATCHBACKGROUNDCOLOR
1071
-939524096
1000

1000

  0
LINE
  5
1C66C
330
1B896
100
AcDbEntity
  8
CONT_S_2
100
AcDbLine
 10
4640.253164797043
 20
213.0436855019543
 30
0.0
 11
4663.922163338651
 21
236.7126840435639
 31
0.0
1001
GENIUS_GENOBJ-N-HTC_13
1002
{
1000
OWNER
1000
GEN
1002
}
1001
GENIUS_GENODEF_13
1002
{
1000
HIER
1070
     0
1002
}
1002
{
1000
MANEDIT
1070
     0
1002
}
1002
{
1000
NOSEL
1070
     0
1002
}
1002
{
1000
BEHIND
1070
     0
1002
}
1002
{
1000
OTHER
1070
     0
1002
}
1002
{
1000
REACTOR
1002
}
1001
GENIUS_GENHATCH_13
1002
{
1000
DATA
1040
45.0
1042
2.5
1000
_U
1070
     0
1011
4658.560578921337
1021
221.4807360014164
1031
0.0
1002
}
1002
{
1000
UCS
1010
0.0
1020
0.0
1030
0.0
1010
1.0
1020
0.0
1030
0.0
1010
0.0
1020
1.0
1030
0.0
1002
}
1001
HATCHBACKGROUNDCOLOR
1071
-939524096
1000

1000

  0
LINE
  5
1C66D
330
1B896
100
AcDbEntity
  8
CONT_S_2
100
AcDbLine
 10
4667.322162338651
 20
240.1126830435639
 30
0.0
 11
4667.753164797042
 21
240.5436855019543
 31
0.0
1001
GENIUS_GENOBJ-N-HTC_13
1002
{
1000
OWNER
1000
GEN
1002
}
1001
GENIUS_GENODEF_13
1002
{
1000
HIER
1070
     0
1002
}
1002
{
1000
MANEDIT
1070
     0
1002
}
1002
{
1000
NOSEL
1070
     0
1002
}
1002
{
1000
BEHIND
1070
     0
1002
}
1002
{
1000
OTHER
1070
     0
1002
}
1002
{
1000
REACTOR
1002
}
1001
GENIUS_GENHATCH_13
1002
{
1000
DATA
1040
45.0
1042
2.5
1000
_U
1070
     0
1011
4658.560578921337
1021
221.4807360014164
1031
0.0
1002
}
1002
{
1000
UCS
1010
0.0
1020
0.0
1030
0.0
1010
1.0
1020
0.0
1030
0.0
1010
0.0
1020
1.0
1030
0.0
1002
}
1001
HATCHBACKGROUNDCOLOR
1071
-939524096
1000

1000

  0
LINE
  5
1C66E
330
1B896
100
AcDbEntity
  8
CONT_S_2
100
AcDbLine
 10
4640.253164797043
 20
204.5584041277157
 30
0.0
 11
4667.753164797042
 21
232.0584041277157
 31
0.0
1001
GENIUS_GENOBJ-N-HTC_13
1002
{
1000
OWNER
1000
GEN
1002
}
1001
GENIUS_GENODEF_13
1002
{
1000
HIER
1070
     0
1002
}
1002
{
1000
MANEDIT
1070
     0
1002
}
1002
{
1000
NOSEL
1070
     0
1002
}
1002
{
1000
BEHIND
1070
     0
1002
}
1002
{
1000
OTHER
1070
     0
1002
}
1002
{
1000
REACTOR
1002
}
1001
GENIUS_GENHATCH_13
1002
{
1000
DATA
1040
45.0
1042
2.5
1000
_U
1070
     0
1011
4658.560578921337
1021
221.4807360014164
1031
0.0
1002
}
1002
{
1000
UCS
1010
0.0
1020
0.0
1030
0.0
1010
1.0
1020
0.0
1030
0.0
1010
0.0
1020
1.0
1030
0.0
1002
}
1001
HATCHBACKGROUNDCOLOR
1071
-939524096
1000

1000

  0
LINE
  5
1C66F
330
1B896
100
AcDbEntity
  8
CONT_S_2
100
AcDbLine
 10
4645.892725087128
 20
201.7126830435638
 30
0.0
 11
4667.753164797042
 21
223.5731227534772
 31
0.0
1001
GENIUS_GENOBJ-N-HTC_13
1002
{
1000
OWNER
1000
GEN
1002
}
1001
GENIUS_GENODEF_13
1002
{
1000
HIER
1070
     0
1002
}
1002
{
1000
MANEDIT
1070
     0
1002
}
1002
{
1000
NOSEL
1070
     0
1002
}
1002
{
1000
BEHIND
1070
     0
1002
}
1002
{
1000
OTHER
1070
     0
1002
}
1002
{
1000
REACTOR
1002
}
1001
GENIUS_GENHATCH_13
1002
{
1000
DATA
1040
45.0
1042
2.5
1000
_U
1070
     0
1011
4658.560578921337
1021
221.4807360014164
1031
0.0
1002
}
1002
{
1000
UCS
1010
0.0
1020
0.0
1030
0.0
1010
1.0
1020
0.0
1030
0.0
1010
0.0
1020
1.0
1030
0.0
1002
}
1001
HATCHBACKGROUNDCOLOR
1071
-939524096
1000

1000

  0
LINE
  5
1C670
330
1B896
100
AcDbEntity
  8
CONT_S_2
100
AcDbLine
 10
4654.378006461366
 20
201.7126830435638
 30
0.0
 11
4667.753164797042
 21
215.0878413792386
 31
0.0
1001
GENIUS_GENOBJ-N-HTC_13
1002
{
1000
OWNER
1000
GEN
1002
}
1001
GENIUS_GENODEF_13
1002
{
1000
HIER
1070
     0
1002
}
1002
{
1000
MANEDIT
1070
     0
1002
}
1002
{
1000
NOSEL
1070
     0
1002
}
1002
{
1000
BEHIND
1070
     0
1002
}
1002
{
1000
OTHER
1070
     0
1002
}
1002
{
1000
REACTOR
1002
}
1001
GENIUS_GENHATCH_13
1002
{
1000
DATA
1040
45.0
1042
2.5
1000
_U
1070
     0
1011
4658.560578921337
1021
221.4807360014164
1031
0.0
1002
}
1002
{
1000
UCS
1010
0.0
1020
0.0
1030
0.0
1010
1.0
1020
0.0
1030
0.0
1010
0.0
1020
1.0
1030
0.0
1002
}
1001
HATCHBACKGROUNDCOLOR
1071
-939524096
1000

1000

  0
LINE
  5
1C671
330
1B896
100
AcDbEntity
  8
CONT_S_2
100
AcDbLine
 10
4662.863287835605
 20
201.7126830435638
 30
0.0
 11
4667.753164797042
 21
206.6025600049999
 31
0.0
1001
GENIUS_GENOBJ-N-HTC_13
1002
{
1000
OWNER
1000
GEN
1002
}
1001
GENIUS_GENODEF_13
1002
{
1000
HIER
1070
     0
1002
}
1002
{
1000
MANEDIT
1070
     0
1002
}
1002
{
1000
NOSEL
1070
     0
1002
}
1002
{
1000
BEHIND
1070
     0
1002
}
1002
{
1000
OTHER
1070
     0
1002
}
1002
{
1000
REACTOR
1002
}
1001
GENIUS_GENHATCH_13
1002
{
1000
DATA
1040
45.0
1042
2.5
1000
_U
1070
     0
1011
4658.560578921337
1021
221.4807360014164
1031
0.0
1002
}
1002
{
1000
UCS
1010
0.0
1020
0.0
1030
0.0
1010
1.0
1020
0.0
1030
0.0
1010
0.0
1020
1.0
1030
0.0
1002
}
1001
HATCHBACKGROUNDCOLOR
1071
-939524096
1000

1000

  0
LINE
  5
1C672
330
1B896
100
AcDbEntity
  8
CONT_S_2
100
AcDbLine
 10
4640.253164797043
 20
272.4406551216242
 30
0.0
 11
4644.52519271898
 21
276.7126830435638
 31
0.0
1001
GENIUS_GENOBJ-N-HTC_13
1002
{
1000
OWNER
1000
GEN
1002
}
1001
GENIUS_GENODEF_13
1002
{
1000
HIER
1070
     0
1002
}
1002
{
1000
MANEDIT
1070
     0
1002
}
1002
{
1000
NOSEL
1070
     0
1002
}
1002
{
1000
BEHIND
1070
     0
1002
}
1002
{
1000
OTHER
1070
     0
1002
}
1002
{
1000
REACTOR
1002
}
1001
GENIUS_GENHATCH_13
1002
{
1000
DATA
1040
45.0
1042
2.5
1000
_U
1070
     0
1011
4654.375786258884
1021
263.3286626259371
1031
0.0
1002
}
1002
{
1000
UCS
1010
0.0
1020
0.0
1030
0.0
1010
1.0
1020
0.0
1030
0.0
1010
0.0
1020
1.0
1030
0.0
1002
}
1001
HATCHBACKGROUNDCOLOR
1071
-939524096
1000

1000

  0
LINE
  5
1C673
330
1B896
100
AcDbEntity
  8
CONT_S_2
100
AcDbLine
 10
4640.253164797043
 20
263.9553737473857
 30
0.0
 11
4653.01047409322
 21
276.7126830435638
 31
0.0
1001
GENIUS_GENOBJ-N-HTC_13
1002
{
1000
OWNER
1000
GEN
1002
}
1001
GENIUS_GENODEF_13
1002
{
1000
HIER
1070
     0
1002
}
1002
{
1000
MANEDIT
1070
     0
1002
}
1002
{
1000
NOSEL
1070
     0
1002
}
1002
{
1000
BEHIND
1070
     0
1002
}
1002
{
1000
OTHER
1070
     0
1002
}
1002
{
1000
REACTOR
1002
}
1001
GENIUS_GENHATCH_13
1002
{
1000
DATA
1040
45.0
1042
2.5
1000
_U
1070
     0
1011
4654.375786258884
1021
263.3286626259371
1031
0.0
1002
}
1002
{
1000
UCS
1010
0.0
1020
0.0
1030
0.0
1010
1.0
1020
0.0
1030
0.0
1010
0.0
1020
1.0
1030
0.0
1002
}
1001
HATCHBACKGROUNDCOLOR
1071
-939524096
1000

1000

  0
LINE
  5
1C674
330
1B896
100
AcDbEntity
  8
CONT_S_2
100
AcDbLine
 10
4640.253164797043
 20
255.4700923731471
 30
0.0
 11
4661.495755467458
 21
276.7126830435638
 31
0.0
1001
GENIUS_GENOBJ-N-HTC_13
1002
{
1000
OWNER
1000
GEN
1002
}
1001
GENIUS_GENODEF_13
1002
{
1000
HIER
1070
     0
1002
}
1002
{
1000
MANEDIT
1070
     0
1002
}
1002
{
1000
NOSEL
1070
     0
1002
}
1002
{
1000
BEHIND
1070
     0
1002
}
1002
{
1000
OTHER
1070
     0
1002
}
1002
{
1000
REACTOR
1002
}
1001
GENIUS_GENHATCH_13
1002
{
1000
DATA
1040
45.0
1042
2.5
1000
_U
1070
     0
1011
4654.375786258884
1021
263.3286626259371
1031
0.0
1002
}
1002
{
1000
UCS
1010
0.0
1020
0.0
1030
0.0
1010
1.0
1020
0.0
1030
0.0
1010
0.0
1020
1.0
1030
0.0
1002
}
1001
HATCHBACKGROUNDCOLOR
1071
-939524096
1000

1000

  0
LINE
  5
1C675
330
1B896
100
AcDbEntity
  8
CONT_S_2
100
AcDbLine
 10
4640.253164797043
 20
246.9848109989085
 30
0.0
 11
4667.753164797042
 21
274.4848109989086
 31
0.0
1001
GENIUS_GENOBJ-N-HTC_13
1002
{
1000
OWNER
1000
GEN
1002
}
1001
GENIUS_GENODEF_13
1002
{
1000
HIER
1070
     0
1002
}
1002
{
1000
MANEDIT
1070
     0
1002
}
1002
{
1000
NOSEL
1070
     0
1002
}
1002
{
1000
BEHIND
1070
     0
1002
}
1002
{
1000
OTHER
1070
     0
1002
}
1002
{
1000
REACTOR
1002
}
1001
GENIUS_GENHATCH_13
1002
{
1000
DATA
1040
45.0
1042
2.5
1000
_U
1070
     0
1011
4654.375786258884
1021
263.3286626259371
1031
0.0
1002
}
1002
{
1000
UCS
1010
0.0
1020
0.0
1030
0.0
1010
1.0
1020
0.0
1030
0.0
1010
0.0
1020
1.0
1030
0.0
1002
}
1001
HATCHBACKGROUNDCOLOR
1071
-939524096
1000

1000

  0
LINE
  5
1C676
330
1B896
100
AcDbEntity
  8
CONT_S_2
100
AcDbLine
 10
4646.466318215934
 20
244.7126830435639
 30
0.0
 11
4667.753164797042
 21
265.9995296246699
 31
0.0
1001
GENIUS_GENOBJ-N-HTC_13
1002
{
1000
OWNER
1000
GEN
1002
}
1001
GENIUS_GENODEF_13
1002
{
1000
HIER
1070
     0
1002
}
1002
{
1000
MANEDIT
1070
     0
1002
}
1002
{
1000
NOSEL
1070
     0
1002
}
1002
{
1000
BEHIND
1070
     0
1002
}
1002
{
1000
OTHER
1070
     0
1002
}
1002
{
1000
REACTOR
1002
}
1001
GENIUS_GENHATCH_13
1002
{
1000
DATA
1040
45.0
1042
2.5
1000
_U
1070
     0
1011
4654.375786258884
1021
263.3286626259371
1031
0.0
1002
}
1002
{
1000
UCS
1010
0.0
1020
0.0
1030
0.0
1010
1.0
1020
0.0
1030
0.0
1010
0.0
1020
1.0
1030
0.0
1002
}
1001
HATCHBACKGROUNDCOLOR
1071
-939524096
1000

1000

  0
LINE
  5
1C677
330
1B896
100
AcDbEntity
  8
CONT_S_2
100
AcDbLine
 10
4654.951599590172
 20
244.7126830435639
 30
0.0
 11
4659.753164797042
 21
249.5142482504314
 31
0.0
1001
GENIUS_GENOBJ-N-HTC_13
1002
{
1000
OWNER
1000
GEN
1002
}
1001
GENIUS_GENODEF_13
1002
{
1000
HIER
1070
     0
1002
}
1002
{
1000
MANEDIT
1070
     0
1002
}
1002
{
1000
NOSEL
1070
     0
1002
}
1002
{
1000
BEHIND
1070
     0
1002
}
1002
{
1000
OTHER
1070
     0
1002
}
1002
{
1000
REACTOR
1002
}
1001
GENIUS_GENHATCH_13
1002
{
1000
DATA
1040
45.0
1042
2.5
1000
_U
1070
     0
1011
4654.375786258884
1021
263.3286626259371
1031
0.0
1002
}
1002
{
1000
UCS
1010
0.0
1020
0.0
1030
0.0
1010
1.0
1020
0.0
1030
0.0
1010
0.0
1020
1.0
1030
0.0
1002
}
1001
HATCHBACKGROUNDCOLOR
1071
-939524096
1000

1000

  0
LINE
  5
1C678
330
1B896
100
AcDbEntity
  8
CONT_S_2
100
AcDbLine
 10
4662.951598590175
 20
252.7126820435648
 30
0.0
 11
4667.753164797042
 21
257.5142482504314
 31
0.0
1001
GENIUS_GENOBJ-N-HTC_13
1002
{
1000
OWNER
1000
GEN
1002
}
1001
GENIUS_GENODEF_13
1002
{
1000
HIER
1070
     0
1002
}
1002
{
1000
MANEDIT
1070
     0
1002
}
1002
{
1000
NOSEL
1070
     0
1002
}
1002
{
1000
BEHIND
1070
     0
1002
}
1002
{
1000
OTHER
1070
     0
1002
}
1002
{
1000
REACTOR
1002
}
1001
GENIUS_GENHATCH_13
1002
{
1000
DATA
1040
45.0
1042
2.5
1000
_U
1070
     0
1011
4654.375786258884
1021
263.3286626259371
1031
0.0
1002
}
1002
{
1000
UCS
1010
0.0
1020
0.0
1030
0.0
1010
1.0
1020
0.0
1030
0.0
1010
0.0
1020
1.0
1030
0.0
1002
}
1001
HATCHBACKGROUNDCOLOR
1071
-939524096
1000

1000

  0
LINE
  5
1C679
330
1B896
100
AcDbEntity
  8
CONT_S_2
100
AcDbLine
 10
4663.436880964413
 20
244.7126830435639
 30
0.0
 11
4667.753164797042
 21
249.0289668761928
 31
0.0
1001
GENIUS_GENOBJ-N-HTC_13
1002
{
1000
OWNER
1000
GEN
1002
}
1001
GENIUS_GENODEF_13
1002
{
1000
HIER
1070
     0
1002
}
1002
{
1000
MANEDIT
1070
     0
1002
}
1002
{
1000
NOSEL
1070
     0
1002
}
1002
{
1000
BEHIND
1070
     0
1002
}
1002
{
1000
OTHER
1070
     0
1002
}
1002
{
1000
REACTOR
1002
}
1001
GENIUS_GENHATCH_13
1002
{
1000
DATA
1040
45.0
1042
2.5
1000
_U
1070
     0
1011
4654.375786258884
1021
263.3286626259371
1031
0.0
1002
}
1002
{
1000
UCS
1010
0.0
1020
0.0
1030
0.0
1010
1.0
1020
0.0
1030
0.0
1010
0.0
1020
1.0
1030
0.0
1002
}
1001
HATCHBACKGROUNDCOLOR
1071
-939524096
1000

1000

  0
LINE
  5
1C67A
330
1B896
100
AcDbEntity
  8
AM_5
100
AcDbLine
 10
4517.952579713795
 20
382.0536406468518
 30
0.0
 11
4517.952579713795
 21
93.55364064685181
 31
0.0
1001
ACAD_DSTYLE_DIMINSPECT
1070
   393
1070
     0
1001
ACAD
1000
DSTYLE
1002
{
1070
    72
1070
     0
1070
    71
1070
     0
1070
    75
1070
     1
1070
    76
1070
     1
1002
}
  0
LINE
  5
1C67B
330
1B896
100
AcDbEntity
  8
AM_5
100
AcDbLine
 10
4433.053589289728
 20
105.5536406468518
 30
0.0
 11
4491.952579713795
 21
105.5536406468518
 31
0.0
1001
ACAD_DSTYLE_DIMINSPECT
1070
   393
1070
     0
1001
ACAD
1000
DSTYLE
1002
{
1070
   174
1070
     1
1070
    40
1040
2.0
1002
}
  0
LINE
  5
1C67C
330
1B896
100
AcDbEntity
  8
AM_5
100
AcDbLine
 10
4475.053588697423
 20
93.55364064685181
 30
0.0
 11
4491.952579713795
 21
93.55364064685181
 31
0.0
1001
ACAD_DSTYLE_DIMINSPECT
1070
   393
1070
     0
1001
ACAD
1000
DSTYLE
1002
{
1070
   174
1070
     1
1070
    40
1040
2.0
1002
}
  0
LINE
  5
1C67D
330
1B896
100
AcDbEntity
  8
AM_5
100
AcDbLine
 10
4489.952579713796
 20
105.5536406468518
 30
0.0
 11
4489.952579713796
 21
93.55364064685181
 31
0.0
1001
ACAD_DSTYLE_DIMINSPECT
1070
   393
1070
     0
1001
ACAD
1000
DSTYLE
1002
{
1070
   174
1070
     1
1070
    40
1040
2.0
1002
}
  0
LINE
  5
1C67E
330
1B896
100
AcDbEntity
  8
AM_5
100
AcDbLine
 10
4489.952579713796
 20
105.5536406468518
 30
0.0
 11
4489.952579713796
 21
107.5536406468518
 31
0.0
1001
ACAD_DSTYLE_DIMINSPECT
1070
   393
1070
     0
1001
ACAD
1000
DSTYLE
1002
{
1070
   174
1070
     1
1070
    40
1040
2.0
1002
}
  0
LINE
  5
1C680
330
1B896
100
AcDbEntity
  8
AM_5
100
AcDbLine
 10
4433.187563885942
 20
369.0536406468518
 30
0.0
 11
4491.952579713795
 21
369.0536406468518
 31
0.0
1001
ACAD_DSTYLE_DIMINSPECT
1070
   393
1070
     0
1001
ACAD
1000
DSTYLE
1002
{
1070
    72
1070
     0
1070
    71
1070
     0
1002
}
  0
LINE
  5
1C681
330
1B896
100
AcDbEntity
  8
AM_5
100
AcDbLine
 10
4433.053589289728
 20
105.5536406468518
 30
0.0
 11
4491.952579713795
 21
105.5536406468518
 31
0.0
1001
ACAD_DSTYLE_DIMINSPECT
1070
   393
1070
     0
1001
ACAD
1000
DSTYLE
1002
{
1070
    72
1070
     0
1070
    71
1070
     0
1002
}
  0
LINE
  5
1C682
330
1B896
100
AcDbEntity
  8
AM_5
100
AcDbLine
 10
4489.952579713796
 20
369.0536406468518
 30
0.0
 11
4489.952579713796
 21
105.5536406468518
 31
0.0
1001
ACAD_DSTYLE_DIMINSPECT
1070
   393
1070
     0
1001
ACAD
1000
DSTYLE
1002
{
1070
    72
1070
     0
1070
    71
1070
     0
1002
}
  0
LINE
  5
1C683
330
1B896
100
AcDbEntity
  8
AM_5
100
AcDbLine
 10
4489.952579713796
 20
382.0536406468518
 30
0.0
 11
4489.952579713796
 21
369.0536406468518
 31
0.0
1001
ACAD_DSTYLE_DIMINSPECT
1070
   393
1070
     0
1001
ACAD
1000
DSTYLE
1002
{
1070
    75
1070
     1
1070
    76
1070
     1
1070
   174
1070
     1
1002
}
  0
LINE
  5
1C684
330
1B896
100
AcDbEntity
  8
AM_5
100
AcDbLine
 10
4370.053589289727
 20
313.9663646502388
 30
0.0
 11
4370.053589289727
 21
281.2409123876615
 31
0.0
1001
ACAD_DSTYLE_DIMINSPECT
1070
   393
1070
     0
1001
ACAD
1000
DSTYLE
1002
{
1070
   174
1070
     1
1070
    40
1040
2.0
1002
}
  0
LINE
  5
1C685
330
1B896
100
AcDbEntity
  8
AM_5
100
AcDbLine
 10
4347.053589289727
 20
313.9663646502388
 30
0.0
 11
4347.053589289727
 21
281.2409123876615
 31
0.0
1001
ACAD_DSTYLE_DIMINSPECT
1070
   393
1070
     0
1001
ACAD
1000
DSTYLE
1002
{
1070
   174
1070
     1
1070
    40
1040
2.0
1002
}
  0
LINE
  5
1C686
330
1B896
100
AcDbEntity
  8
AM_5
100
AcDbLine
 10
4370.053589289727
 20
283.2409123876615
 30
0.0
 11
4347.053589289727
 21
283.2409123876615
 31
0.0
1001
ACAD_DSTYLE_DIMINSPECT
1070
   393
1070
     0
1001
ACAD
1000
DSTYLE
1002
{
1070
   174
1070
     1
1070
    40
1040
2.0
1002
}
  0
LINE
  5
1C687
330
1B896
100
AcDbEntity
  8
AM_5
100
AcDbLine
 10
4388.053589289728
 20
313.9663646502388
 30
0.0
 11
4388.053589289728
 21
281.2409123876615
 31
0.0
1001
ACAD_DSTYLE_DIMINSPECT
1070
   393
1070
     0
1001
ACAD
1000
DSTYLE
1002
{
1070
   174
1070
     1
1070
    40
1040
2.0
1002
}
  0
LINE
  5
1C688
330
1B896
100
AcDbEntity
  8
AM_5
100
AcDbLine
 10
4370.053589289727
 20
313.9663646502388
 30
0.0
 11
4370.053589289727
 21
281.2409123876615
 31
0.0
1001
ACAD_DSTYLE_DIMINSPECT
1070
   393
1070
     0
1001
ACAD
1000
DSTYLE
1002
{
1070
   174
1070
     1
1070
    40
1040
2.0
1002
}
  0
LINE
  5
1C689
330
1B896
100
AcDbEntity
  8
AM_5
100
AcDbLine
 10
4388.053589289728
 20
283.2409123876615
 30
0.0
 11
4370.053589289727
 21
283.2409123876615
 31
0.0
1001
ACAD_DSTYLE_DIMINSPECT
1070
   393
1070
     0
1001
ACAD
1000
DSTYLE
1002
{
1070
   174
1070
     1
1070
    40
1040
2.0
1002
}
  0
LINE
  5
1C68A
330
1B896
100
AcDbEntity
  8
AM_5
100
AcDbLine
 10
4403.220762107903
 20
269.638843131287
 30
0.0
 11
4395.220762107903
 21
269.638843131287
 31
0.0
1001
ACAD_DSTYLE_DIMINSPECT
1070
   393
1070
     0
1001
ACAD
1000
DSTYLE
1002
{
1070
   174
1070
     1
1070
    40
1040
2.0
1002
}
  0
LINE
  5
1C68B
330
1B896
100
AcDbEntity
  8
AM_5
100
AcDbLine
 10
4395.220762107903
 20
269.638843131287
 30
0.0
 11
4389.553589289728
 21
283.2409123876615
 31
0.0
1001
ACAD_DSTYLE_DIMINSPECT
1070
   393
1070
     0
1001
ACAD
1000
DSTYLE
1002
{
1070
   174
1070
     1
1070
    40
1040
2.0
1002
}
  0
LINE
  5
1C68C
330
1B896
100
AcDbEntity
  8
AM_5
100
AcDbLine
 10
4391.053589289728
 20
367.0536406468518
 30
0.0
 11
4391.053589289728
 21
281.2409123876615
 31
0.0
1001
ACAD_DSTYLE_DIMINSPECT
1070
   393
1070
     0
1001
ACAD
1000
DSTYLE
1002
{
1070
   174
1070
     1
1070
    40
1040
2.0
1002
}
  0
LINE
  5
1C68D
330
1B896
100
AcDbEntity
  8
AM_5
100
AcDbLine
 10
4388.053589289728
 20
313.9663646502388
 30
0.0
 11
4388.053589289728
 21
281.2409123876615
 31
0.0
1001
ACAD_DSTYLE_DIMINSPECT
1070
   393
1070
     0
1001
ACAD
1000
DSTYLE
1002
{
1070
   174
1070
     1
1070
    40
1040
2.0
1002
}
  0
LINE
  5
1C68E
330
1B896
100
AcDbEntity
  8
AM_5
100
AcDbLine
 10
4391.053589289728
 20
283.2409123876615
 30
0.0
 11
4388.053589289728
 21
283.2409123876615
 31
0.0
1001
ACAD_DSTYLE_DIMINSPECT
1070
   393
1070
     0
1001
ACAD
1000
DSTYLE
1002
{
1070
   174
1070
     1
1070
    40
1040
2.0
1002
}
  0
LINE
  5
1C68F
330
1B896
100
AcDbEntity
  8
AM_5
100
AcDbLine
 10
4391.053589289728
 20
283.2409123876615
 30
0.0
 11
4393.053589289728
 21
283.2409123876615
 31
0.0
1001
ACAD_DSTYLE_DIMINSPECT
1070
   393
1070
     0
1001
ACAD
1000
DSTYLE
1002
{
1070
   174
1070
     1
1070
    40
1040
2.0
1002
}
  0
LINE
  5
1C690
330
1B896
100
AcDbEntity
  8
AM_5
100
AcDbLine
 10
4388.053589289728
 20
283.2409123876615
 30
0.0
 11
4386.053589289728
 21
283.2409123876615
 31
0.0
1001
ACAD_DSTYLE_DIMINSPECT
1070
   393
1070
     0
1001
ACAD
1000
DSTYLE
1002
{
1070
   174
1070
     1
1070
    40
1040
2.0
1002
}
  0
LINE
  5
1C691
330
1B896
100
AcDbEntity
  8
AM_5
100
AcDbLine
 10
4391.053589289728
 20
367.0536406468518
 30
0.0
 11
4391.053589289728
 21
281.2409123876615
 31
0.0
1001
ACAD_DSTYLE_DIMINSPECT
1070
   393
1070
     0
1001
ACAD
1000
DSTYLE
1002
{
1070
   174
1070
     1
1002
}
  0
LINE
  5
1C692
330
1B896
100
AcDbEntity
  8
AM_5
100
AcDbLine
 10
4431.053589289727
 20
367.0536406468518
 30
0.0
 11
4431.053589289727
 21
281.2409123876615
 31
0.0
1001
ACAD_DSTYLE_DIMINSPECT
1070
   393
1070
     0
1001
ACAD
1000
DSTYLE
1002
{
1070
   174
1070
     1
1002
}
  0
LINE
  5
1C693
330
1B896
100
AcDbEntity
  8
AM_5
100
AcDbLine
 10
4391.053589289728
 20
283.2409123876615
 30
0.0
 11
4431.053589289727
 21
283.2409123876615
 31
0.0
1001
ACAD_DSTYLE_DIMINSPECT
1070
   393
1070
     0
1001
ACAD
1000
DSTYLE
1002
{
1070
   174
1070
     1
1002
}
  0
LINE
  5
1C694
330
1B896
100
AcDbEntity
  8
AM_5
100
AcDbLine
 10
4293.053589289728
 20
382.0536406468518
 30
0.0
 11
4293.053589289728
 21
93.55364064685181
 31
0.0
1001
ACAD_DSTYLE_DIMINSPECT
1070
   393
1070
     0
1001
ACAD
1000
DSTYLE
1002
{
1070
    76
1070
     1
1070
    75
1070
     1
1070
    72
1070
     0
1070
    71
1070
     0
1002
}
  0
LINE
  5
1C695
330
1B896
100
AcDbEntity
  8
AM_5
100
AcDbLine
 10
4293.053589289728
 20
394.5536406468518
 30
0.0
 11
4293.053589289728
 21
441.3715805814732
 31
0.0
1001
ACAD_DSTYLE_DIMINSPECT
1070
   393
1070
     0
1001
ACAD
1000
DSTYLE
1002
{
1070
    76
1070
     1
1070
    75
1070
     1
1070
   174
1070
     1
1070
   170
1070
     0
1070
    72
1070
     0
1070
    71
1070
     0
1002
}
  0
LINE
  5
1C696
330
1B896
100
AcDbEntity
  8
AM_5
100
AcDbLine
 10
4293.053589289728
 20
394.5536406468518
 30
0.0
 11
4293.053589289728
 21
382.0536406468518
 31
0.0
1001
ACAD_DSTYLE_DIMINSPECT
1070
   393
1070
     0
1001
ACAD
1000
DSTYLE
1002
{
1070
    76
1070
     1
1070
    75
1070
     1
1070
   174
1070
     1
1070
   170
1070
     0
1070
    72
1070
     0
1070
    71
1070
     0
1002
}
  0
TEXT
  5
1C697
330
1B896
100
AcDbEntity
  8
AM_5
100
AcDbText
 10
4289.053589289728
 20
400.2287234386165
 30
0.0
 40
6.0
  1
12.5(9.5)
 50
90.0
  7
SIMPLEX
100
AcDbText
1001
ACAD_DSTYLE_DIMINSPECT
1070
   393
1070
     0
1001
ACAD
1000
DSTYLE
1002
{
1070
    76
1070
     1
1070
    75
1070
     1
1070
   174
1070
     1
1070
   170
1070
     0
1070
    72
1070
     0
1070
    71
1070
     0
1002
}
  0
CIRCLE
  5
1C698
330
1B896
100
AcDbEntity
  8
AM_5
100
AcDbCircle
 10
4293.053589289728
 20
382.0536406468518
 30
0.0
 40
0.5
  0
CIRCLE
  5
1C699
330
1B896
100
AcDbEntity
  8
AM_5
100
AcDbCircle
 10
4293.053589289728
 20
394.5536406468518
 30
0.0
 40
0.5
  0
TEXT
  5
1C69A
330
1B896
100
AcDbEntity
  8
AM_5
100
AcDbText
 10
4291.053589289727
 20
226.2036406468517
 30
0.0
 40
6.0
  1
PB下H
 50
90.0
  7
SIMPLEX
100
AcDbText
1001
ACAD_DSTYLE_DIMINSPECT
1070
   393
1070
     0
1001
ACAD
1000
DSTYLE
1002
{
1070
    76
1070
     1
1070
    75
1070
     1
1070
    72
1070
     0
1070
    71
1070
     0
1002
}
  0
CIRCLE
  5
1C69B
330
1B896
100
AcDbEntity
  8
AM_5
100
AcDbCircle
 10
4293.053589289728
 20
93.55364064685181
 30
0.0
 40
0.5
  0
CIRCLE
  5
1C69C
330
1B896
100
AcDbEntity
  8
AM_5
100
AcDbCircle
 10
4293.053589289728
 20
382.0536406468518
 30
0.0
 40
0.5
  0
TEXT
  5
1C69D
330
1B896
100
AcDbEntity
  8
AM_5
100
AcDbText
 10
4406.196446432584
 20
285.2409123876615
 30
0.0
 40
6.0
  1
40
  7
SIMPLEX
100
AcDbText
1001
ACAD_DSTYLE_DIMINSPECT
1070
   393
1070
     0
1001
ACAD
1000
DSTYLE
1002
{
1070
   174
1070
     1
1002
}
  0
CIRCLE
  5
1C69E
330
1B896
100
AcDbEntity
  8
AM_5
100
AcDbCircle
 10
4431.053589289727
 20
283.2409123876615
 30
0.0
 40
0.5
  0
CIRCLE
  5
1C69F
330
1B896
100
AcDbEntity
  8
AM_5
100
AcDbCircle
 10
4391.053589289728
 20
283.2409123876615
 30
0.0
 40
0.5
  0
TEXT
  5
1C6A0
330
1B896
100
AcDbEntity
  8
AM_5
100
AcDbText
 10
4397.220762107903
 20
271.638843131287
 30
0.0
 40
6.0
  1
3
  7
SIMPLEX
100
AcDbText
1001
ACAD_DSTYLE_DIMINSPECT
1070
   393
1070
     0
1001
ACAD
1000
DSTYLE
1002
{
1070
   174
1070
     1
1070
    40
1040
2.0
1002
}
  0
CIRCLE
  5
1C6A1
330
1B896
100
AcDbEntity
  8
AM_5
100
AcDbCircle
 10
4388.053589289728
 20
283.2409123876615
 30
0.0
 40
0.5
  0
CIRCLE
  5
1C6A2
330
1B896
100
AcDbEntity
  8
AM_5
100
AcDbCircle
 10
4391.053589289728
 20
283.2409123876615
 30
0.0
 40
0.5
  0
TEXT
  5
1C6A3
330
1B896
100
AcDbEntity
  8
AM_5
100
AcDbText
 10
4374.767875004012
 20
285.2409123876615
 30
0.0
 40
6.0
  1
18
  7
SIMPLEX
100
AcDbText
1001
ACAD_DSTYLE_DIMINSPECT
1070
   393
1070
     0
1001
ACAD
1000
DSTYLE
1002
{
1070
   174
1070
     1
1070
    40
1040
2.0
1002
}
  0
CIRCLE
  5
1C6A4
330
1B896
100
AcDbEntity
  8
AM_5
100
AcDbCircle
 10
4370.053589289727
 20
283.2409123876615
 30
0.0
 40
0.5
  0
CIRCLE
  5
1C6A5
330
1B896
100
AcDbEntity
  8
AM_5
100
AcDbCircle
 10
4388.053589289728
 20
283.2409123876615
 30
0.0
 40
0.5
  0
TEXT
  5
1C6A6
330
1B896
100
AcDbEntity
  8
AM_5
100
AcDbText
 10
4353.696446432585
 20
285.2409123876615
 30
0.0
 40
6.0
  1
23
  7
SIMPLEX
100
AcDbText
1001
ACAD_DSTYLE_DIMINSPECT
1070
   393
1070
     0
1001
ACAD
1000
DSTYLE
1002
{
1070
   174
1070
     1
1070
    40
1040
2.0
1002
}
  0
CIRCLE
  5
1C6A7
330
1B896
100
AcDbEntity
  8
AM_5
100
AcDbCircle
 10
4347.053589289727
 20
283.2409123876615
 30
0.0
 40
0.5
  0
CIRCLE
  5
1C6A8
330
1B896
100
AcDbEntity
  8
AM_5
100
AcDbCircle
 10
4370.053589289727
 20
283.2409123876615
 30
0.0
 40
0.5
  0
TEXT
  5
1C6A9
330
1B896
100
AcDbEntity
  8
AM_5
100
AcDbText
 10
4487.952579713796
 20
371.2679263611374
 30
0.0
 40
6.0
  1
13
 50
90.0
  7
SIMPLEX
100
AcDbText
1001
ACAD_DSTYLE_DIMINSPECT
1070
   393
1070
     0
1001
ACAD
1000
DSTYLE
1002
{
1070
    75
1070
     1
1070
    76
1070
     1
1070
   174
1070
     1
1002
}
  0
CIRCLE
  5
1C6AA
330
1B896
100
AcDbEntity
  8
AM_5
100
AcDbCircle
 10
4489.952579713796
 20
369.0536406468518
 30
0.0
 40
0.5
  0
CIRCLE
  5
1C6AB
330
1B896
100
AcDbEntity
  8
AM_5
100
AcDbCircle
 10
4489.952579713796
 20
382.0536406468518
 30
0.0
 40
0.5
  0
TEXT
  5
1C6AC
330
1B896
100
AcDbEntity
  8
AM_5
100
AcDbText
 10
4487.952579713796
 20
197.153640646852
 30
0.0
 40
6.0
  1
ドアH（DH）＝H-25
 50
90.0
  7
SIMPLEX
100
AcDbText
1001
ACAD_DSTYLE_DIMINSPECT
1070
   393
1070
     0
1001
ACAD
1000
DSTYLE
1002
{
1070
    72
1070
     0
1070
    71
1070
     0
1002
}
  0
CIRCLE
  5
1C6AD
330
1B896
100
AcDbEntity
  8
AM_5
100
AcDbCircle
 10
4489.952579713796
 20
105.5536406468518
 30
0.0
 40
0.5
  0
CIRCLE
  5
1C6AE
330
1B896
100
AcDbEntity
  8
AM_5
100
AcDbCircle
 10
4489.952579713796
 20
369.0536406468518
 30
0.0
 40
0.5
  0
TEXT
  5
1C6AF
330
1B896
100
AcDbEntity
  8
AM_5
100
AcDbText
 10
4487.952579713796
 20
95.26792636113697
 30
0.0
 40
6.0
  1
12
 50
90.0
  7
SIMPLEX
100
AcDbText
1001
ACAD_DSTYLE_DIMINSPECT
1070
   393
1070
     0
1001
ACAD
1000
DSTYLE
1002
{
1070
   174
1070
     1
1070
    40
1040
2.0
1002
}
  0
CIRCLE
  5
1C6B0
330
1B896
100
AcDbEntity
  8
AM_5
100
AcDbCircle
 10
4489.952579713796
 20
93.55364064685181
 30
0.0
 40
0.5
  0
CIRCLE
  5
1C6B1
330
1B896
100
AcDbEntity
  8
AM_5
100
AcDbCircle
 10
4489.952579713796
 20
105.5536406468518
 30
0.0
 40
0.5
  0
TEXT
  5
1C6B2
330
1B896
100
AcDbEntity
  8
AM_5
100
AcDbText
 10
4515.952579713796
 20
225.5179263611369
 30
0.0
 40
6.0
  1
WH=H
 50
90.0
  7
SIMPLEX
100
AcDbText
1001
ACAD_DSTYLE_DIMINSPECT
1070
   393
1070
     0
1001
ACAD
1000
DSTYLE
1002
{
1070
    72
1070
     0
1070
    71
1070
     0
1070
    75
1070
     1
1070
    76
1070
     1
1002
}
  0
CIRCLE
  5
1C6B3
330
1B896
100
AcDbEntity
  8
AM_5
100
AcDbCircle
 10
4517.952579713795
 20
93.55364064685181
 30
0.0
 40
0.5
  0
CIRCLE
  5
1C6B4
330
1B896
100
AcDbEntity
  8
AM_5
100
AcDbCircle
 10
4517.952579713795
 20
382.0536406468518
 30
0.0
 40
0.5
  0
LINE
  5
1C6B5
330
1B896
100
AcDbEntity
  8
AM_5
100
AcDbLine
 10
4621.302480088987
 20
168.8029226325115
 30
0.0
 11
4607.088936686341
 21
145.5273231549427
 31
0.0
1001
ACAD
1000
DSTYLE
1002
{
1070
    40
1040
3.0
1070
   176
1070
     4
1070
    41
1040
1.5
1070
   147
1040
1.0
1070
    77
1070
     0
1002
}
  0
LINE
  5
1C6B6
330
1B896
100
AcDbEntity
  8
AM_5
100
AcDbLine
 10
4607.088936686341
 20
145.5273231549427
 30
0.0
 11
4591.659205447136
 21
145.5273231549427
 31
0.0
1001
ACAD
1000
DSTYLE
1002
{
1070
    40
1040
3.0
1070
   176
1070
     4
1070
    41
1040
1.5
1070
   147
1040
1.0
1070
    77
1070
     0
1002
}
  0
LINE
  5
1C6B7
330
1B896
100
AcDbEntity
  8
AM_5
100
AcDbLine
 10
4621.942569102762
 20
168.4120440651242
 30
0.0
 11
4623.647751493311
 21
172.6434567151704
 31
0.0
210
0.0
220
0.0
230
-1.0
  0
LINE
  5
1C6B8
330
1B896
100
AcDbEntity
  8
AM_5
100
AcDbLine
 10
4620.662391075209
 20
169.1938011998986
 30
0.0
 11
4623.647751493311
 21
172.6434567151704
 31
0.0
210
0.0
220
0.0
230
-1.0
  0
LINE
  5
1C6B9
330
1B896
100
AcDbEntity
  8
AM_5
100
AcDbLine
 10
4623.647751493311
 20
172.6434567151704
 30
0.0
 11
4621.302480088987
 21
168.8029226325115
 31
0.0
210
0.0
220
0.0
230
-1.0
  0
TEXT
  5
1C6BA
330
1B896
100
AcDbEntity
  8
AM_5
100
AcDbText
 10
4610.389171643697
 20
255.8555401864208
 30
0.0
 40
6.0
  1
32
 50
90.0
  7
SIMPLEX
100
AcDbText
1001
ACAD_DSTYLE_DIMINSPECT
1070
   393
1070
     0
  0
CIRCLE
  5
1C6BB
330
1B896
100
AcDbEntity
  8
AM_5
100
AcDbCircle
 10
4612.389171643697
 20
244.7126830435639
 30
0.0
 40
0.5
  0
CIRCLE
  5
1C6BC
330
1B896
100
AcDbEntity
  8
AM_5
100
AcDbCircle
 10
4612.389171643697
 20
276.7126830435638
 30
0.0
 40
0.5
  0
TEXT
  5
1C6BD
330
1B896
100
AcDbEntity
  8
AM_5
100
AcDbText
 10
4599.959299864305
 20
234.3555401864208
 30
0.0
 40
6.0
  1
75
 50
90.0
  7
SIMPLEX
100
AcDbText
1001
ACAD_DSTYLE_DIMINSPECT
1070
   393
1070
     0
1001
ACAD
1000
DSTYLE
1002
{
1070
   174
1070
     1
1002
}
  0
CIRCLE
  5
1C6BE
330
1B896
100
AcDbEntity
  8
AM_5
100
AcDbCircle
 10
4601.959299864305
 20
201.7126830435638
 30
0.0
 40
0.5
  0
CIRCLE
  5
1C6BF
330
1B896
100
AcDbEntity
  8
AM_5
100
AcDbCircle
 10
4601.959299864305
 20
276.7126830435638
 30
0.0
 40
0.5
  0
TEXT
  5
1C6C0
330
1B896
100
AcDbEntity
  8
AM_5
100
AcDbText
 10
4599.959299864305
 20
184.3555401864208
 30
0.0
 40
6.0
  1
25
 50
90.0
  7
SIMPLEX
100
AcDbText
1001
ACAD_DSTYLE_DIMINSPECT
1070
   393
1070
     0
1001
ACAD
1000
DSTYLE
1002
{
1070
   174
1070
     1
1070
    40
1040
2.0
1002
}
  0
CIRCLE
  5
1C6C1
330
1B896
100
AcDbEntity
  8
AM_5
100
AcDbCircle
 10
4601.959299864305
 20
176.7126830435638
 30
0.0
 40
0.5
  0
CIRCLE
  5
1C6C2
330
1B896
100
AcDbEntity
  8
AM_5
100
AcDbCircle
 10
4601.959299864305
 20
201.7126830435638
 30
0.0
 40
0.5
  0
TEXT
  5
1C6C3
330
1B896
100
AcDbEntity
  8
AM_5
100
AcDbText
 10
4622.466424188913
 20
207.5931980136745
 30
0.0
 40
6.0
  1
3
 50
90.0
  7
SIMPLEX
100
AcDbText
1001
ACAD_DSTYLE_DIMINSPECT
1070
   393
1070
     0
1001
ACAD
1000
DSTYLE
1002
{
1070
   173
1070
     1
1002
}
  0
CIRCLE
  5
1C6C4
330
1B896
100
AcDbEntity
  8
AM_5
100
AcDbCircle
 10
4624.466424188913
 20
201.7126830435638
 30
0.0
 40
0.5
  0
CIRCLE
  5
1C6C5
330
1B896
100
AcDbEntity
  8
AM_5
100
AcDbCircle
 10
4624.466424188913
 20
198.7126830435638
 30
0.0
 40
0.5
  0
TEXT
  5
1C6C6
330
1B896
100
AcDbEntity
  8
AM_5
100
AcDbText
 10
4622.466424188913
 20
193.8555401864203
 30
0.0
 40
6.0
  1
6
 50
90.0
  7
SIMPLEX
100
AcDbText
1001
ACAD_DSTYLE_DIMINSPECT
1070
   393
1070
     0
1001
ACAD
1000
DSTYLE
1002
{
1070
   173
1070
     1
1002
}
  0
CIRCLE
  5
1C6C7
330
1B896
100
AcDbEntity
  8
AM_5
100
AcDbCircle
 10
4624.466424188913
 20
192.7126830435638
 30
0.0
 40
0.5
  0
CIRCLE
  5
1C6C8
330
1B896
100
AcDbEntity
  8
AM_5
100
AcDbCircle
 10
4624.466424188913
 20
198.7126830435638
 30
0.0
 40
0.5
  0
TEXT
  5
1C6C9
330
1B896
100
AcDbEntity
  8
AM_5
100
AcDbText
 10
4756.378164797043
 20
207.8555401864203
 30
0.0
 40
6.0
  1
40
 50
90.0
  7
SIMPLEX
100
AcDbText
1001
ACAD_DSTYLE_DIMINSPECT
1070
   393
1070
     0
  0
CIRCLE
  5
1C6CA
330
1B896
100
AcDbEntity
  8
AM_5
100
AcDbCircle
 10
4758.378164797043
 20
192.7126830435638
 30
0.0
 40
0.5
  0
CIRCLE
  5
1C6CB
330
1B896
100
AcDbEntity
  8
AM_5
100
AcDbCircle
 10
4758.378164797043
 20
232.7126830435638
 30
0.0
 40
0.5
  0
TEXT
  5
1C6CC
330
1B896
100
AcDbEntity
  8
AM_5
100
AcDbText
 10
4754.638879082754
 20
134.797839892246
 30
0.0
 40
6.0
  1
ドアW2（DW2）＝W-8
  7
SIMPLEX
100
AcDbText
1001
ACAD_DSTYLE_DIMINSPECT
1070
   393
1070
     0
1001
ACAD
1000
DSTYLE
1002
{
1070
    72
1070
     0
1070
    71
1070
     0
1002
}
  0
CIRCLE
  5
1C6CD
330
1B896
100
AcDbEntity
  8
AM_5
100
AcDbCircle
 10
4925.253164797043
 20
132.797839892246
 30
0.0
 40
0.5
  0
CIRCLE
  5
1C6CE
330
1B896
100
AcDbEntity
  8
AM_5
100
AcDbCircle
 10
4671.753164797042
 20
132.797839892246
 30
0.0
 40
0.5
  0
TEXT
  5
1C6CF
330
1B896
100
AcDbEntity
  8
AM_5
100
AcDbText
 10
4916.152558828308
 20
134.797839892246
 30
0.0
 40
6.0
  1
4
  7
SIMPLEX
100
AcDbText
1001
ACAD_DSTYLE_DIMINSPECT
1070
   393
1070
     0
1001
ACAD
1000
DSTYLE
1002
{
1070
   173
1070
     1
1002
}
  0
CIRCLE
  5
1C6D0
330
1B896
100
AcDbEntity
  8
AM_5
100
AcDbCircle
 10
4929.253183413942
 20
132.797839892246
 30
0.0
 40
0.5
  0
CIRCLE
  5
1C6D1
330
1B896
100
AcDbEntity
  8
AM_5
100
AcDbCircle
 10
4925.253164797043
 20
132.797839892246
 30
0.0
 40
0.5
  0
TEXT
  5
1C6D2
330
1B896
100
AcDbEntity
  8
AM_5
100
AcDbText
 10
4676.416679324765
 20
134.797839892246
 30
0.0
 40
6.0
  1
4
  7
SIMPLEX
100
AcDbText
1001
ACAD_DSTYLE_DIMINSPECT
1070
   393
1070
     0
1001
ACAD
1000
DSTYLE
1002
{
1070
   170
1070
     0
1070
    72
1070
     0
1070
    71
1070
     0
1070
   173
1070
     1
1002
}
  0
CIRCLE
  5
1C6D3
330
1B896
100
AcDbEntity
  8
AM_5
100
AcDbCircle
 10
4667.753164797042
 20
132.797839892246
 30
0.0
 40
0.5
  0
CIRCLE
  5
1C6D4
330
1B896
100
AcDbEntity
  8
AM_5
100
AcDbCircle
 10
4671.753164797042
 20
132.797839892246
 30
0.0
 40
0.5
  0
TEXT
  5
1C6D5
330
1B896
100
AcDbEntity
  8
AM_5
100
AcDbText
 10
4755.781745534062
 20
120.797839892246
 30
0.0
 40
6.0
  1
ドアW1（DW1）＝W+8
  7
SIMPLEX
100
AcDbText
1001
ACAD_DSTYLE_DIMINSPECT
1070
   393
1070
     0
1001
ACAD
1000
DSTYLE
1002
{
1070
    72
1070
     0
1070
    71
1070
     0
1002
}
  0
CIRCLE
  5
1C6D6
330
1B896
100
AcDbEntity
  8
AM_5
100
AcDbCircle
 10
4933.253183413943
 20
118.797839892246
 30
0.0
 40
0.5
  0
CIRCLE
  5
1C6D7
330
1B896
100
AcDbEntity
  8
AM_5
100
AcDbCircle
 10
4663.753164797042
 20
118.797839892246
 30
0.0
 40
0.5
  0
TEXT
  5
1C6D8
330
1B896
100
AcDbEntity
  8
AM_5
100
AcDbText
 10
4935.753183413943
 20
120.797839892246
 30
0.0
 40
6.0
  1
11
  7
SIMPLEX
100
AcDbText
1001
ACAD_DSTYLE_DIMINSPECT
1070
   393
1070
     0
1001
ACAD
1000
DSTYLE
1002
{
1070
   174
1070
     1
1070
    40
1040
2.0
1002
}
  0
CIRCLE
  5
1C6D9
330
1B896
100
AcDbEntity
  8
AM_5
100
AcDbCircle
 10
4944.253183413943
 20
118.797839892246
 30
0.0
 40
0.5
  0
CIRCLE
  5
1C6DA
330
1B896
100
AcDbEntity
  8
AM_5
100
AcDbCircle
 10
4933.253183413943
 20
118.797839892246
 30
0.0
 40
0.5
  0
TEXT
  5
1C6DB
330
1B896
100
AcDbEntity
  8
AM_5
100
AcDbText
 10
4959.831903576143
 20
120.797839892246
 30
0.0
 40
6.0
  1
12.5
  7
SIMPLEX
100
AcDbText
1001
ACAD_DSTYLE_DIMINSPECT
1070
   393
1070
     0
1001
ACAD
1000
DSTYLE
1002
{
1070
   174
1070
     1
1070
    40
1040
2.0
1002
}
  0
CIRCLE
  5
1C6DC
330
1B896
100
AcDbEntity
  8
AM_5
100
AcDbCircle
 10
4956.753183413943
 20
118.797839892246
 30
0.0
 40
0.5
  0
CIRCLE
  5
1C6DD
330
1B896
100
AcDbEntity
  8
AM_5
100
AcDbCircle
 10
4944.253183413943
 20
118.797839892246
 30
0.0
 40
0.5
  0
TEXT
  5
1C6DE
330
1B896
100
AcDbEntity
  8
AM_5
100
AcDbText
 10
4933.860326271086
 20
106.7978398922461
 30
0.0
 40
6.0
  1
27.5
  7
SIMPLEX
100
AcDbText
1001
ACAD_DSTYLE_DIMINSPECT
1070
   393
1070
     0
1001
ACAD
1000
DSTYLE
1002
{
1070
   173
1070
     1
1070
   174
1070
     1
1070
    40
1040
2.0
1002
}
  0
CIRCLE
  5
1C6DF
330
1B896
100
AcDbEntity
  8
AM_5
100
AcDbCircle
 10
4956.753183413943
 20
104.7978398922461
 30
0.0
 40
0.5
  0
TEXT
  5
1C6E0
330
1B896
100
AcDbEntity
  8
AM_5
100
AcDbText
 10
4775.931745534062
 20
92.79783989224615
 30
0.0
 40
6.0
  1
WW=W+55
  7
SIMPLEX
100
AcDbText
1001
ACAD_DSTYLE_DIMINSPECT
1070
   393
1070
     0
1001
ACAD
1000
DSTYLE
1002
{
1070
    72
1070
     0
1070
    71
1070
     0
1002
}
  0
CIRCLE
  5
1C6E1
330
1B896
100
AcDbEntity
  8
AM_5
100
AcDbCircle
 10
4640.253164797043
 20
90.79783989224614
 30
0.0
 40
0.5
  0
CIRCLE
  5
1C6E2
330
1B896
100
AcDbEntity
  8
AM_5
100
AcDbCircle
 10
4956.753183413943
 20
90.79783989224614
 30
0.0
 40
0.5
  0
TEXT
  5
1C6E3
330
1B896
100
AcDbEntity
  8
AM_5
100
AcDbText
 10
4644.860307654184
 20
106.7978398922461
 30
0.0
 40
6.0
  1
27.5
  7
SIMPLEX
100
AcDbText
1001
ACAD_DSTYLE_DIMINSPECT
1070
   393
1070
     0
1001
ACAD
1000
DSTYLE
1002
{
1070
   173
1070
     1
1070
   174
1070
     1
1070
    40
1040
2.0
1002
}
  0
CIRCLE
  5
1C6E4
330
1B896
100
AcDbEntity
  8
AM_5
100
AcDbCircle
 10
4640.253164797043
 20
104.7978398922461
 30
0.0
 40
0.5
  0
TEXT
  5
1C6E5
330
1B896
100
AcDbEntity
  8
AM_5
100
AcDbText
 10
4655.253164797042
 20
120.797839892246
 30
0.0
 40
6.0
  1
11
  7
SIMPLEX
100
AcDbText
1001
ACAD_DSTYLE_DIMINSPECT
1070
   393
1070
     0
1001
ACAD
1000
DSTYLE
1002
{
1070
   174
1070
     1
1070
    40
1040
2.0
1002
}
  0
CIRCLE
  5
1C6E6
330
1B896
100
AcDbEntity
  8
AM_5
100
AcDbCircle
 10
4652.753164797043
 20
118.797839892246
 30
0.0
 40
0.5
  0
CIRCLE
  5
1C6E7
330
1B896
100
AcDbEntity
  8
AM_5
100
AcDbCircle
 10
4663.753164797042
 20
118.797839892246
 30
0.0
 40
0.5
  0
TEXT
  5
1C6E8
330
1B896
100
AcDbEntity
  8
AM_5
100
AcDbText
 10
4617.608287215557
 20
120.797839892246
 30
0.0
 40
6.0
  1
12.5
  7
SIMPLEX
100
AcDbText
1001
ACAD_DSTYLE_DIMINSPECT
1070
   393
1070
     0
1001
ACAD
1000
DSTYLE
1002
{
1070
   174
1070
     1
1070
    40
1040
2.0
1002
}
  0
CIRCLE
  5
1C6E9
330
1B896
100
AcDbEntity
  8
AM_5
100
AcDbCircle
 10
4640.253164797043
 20
118.797839892246
 30
0.0
 40
0.5
  0
CIRCLE
  5
1C6EA
330
1B896
100
AcDbEntity
  8
AM_5
100
AcDbCircle
 10
4652.753164797043
 20
118.797839892246
 30
0.0
 40
0.5
  0
TEXT
  5
1C6EB
330
1B896
100
AcDbEntity
  8
AM_5
100
AcDbText
 10
4918.724567125657
 20
124.1057959314873
 30
0.0
 40
6.0
  1
4
  7
SIMPLEX
100
AcDbText
1001
ACAD_DSTYLE_DIMINSPECT
1070
   393
1070
     0
1001
ACAD
1000
DSTYLE
1002
{
1070
   173
1070
     1
1002
}
  0
CIRCLE
  5
1C6EC
330
1B896
100
AcDbEntity
  8
AM_5
100
AcDbCircle
 10
4933.253183413943
 20
132.797839892246
 30
0.0
 40
0.5
  0
CIRCLE
  5
1C6ED
330
1B896
100
AcDbEntity
  8
AM_5
100
AcDbCircle
 10
4929.253183413942
 20
132.797839892246
 30
0.0
 40
0.5
  0
TEXT
  5
1C6EE
330
1B896
100
AcDbEntity
  8
AM_5
100
AcDbText
 10
4673.358897625289
 20
124.3936058994298
 30
0.0
 40
6.0
  1
4
  7
SIMPLEX
100
AcDbText
1001
ACAD_DSTYLE_DIMINSPECT
1070
   393
1070
     0
1001
ACAD
1000
DSTYLE
1002
{
1070
   173
1070
     1
1002
}
  0
CIRCLE
  5
1C6EF
330
1B896
100
AcDbEntity
  8
AM_5
100
AcDbCircle
 10
4663.753164797042
 20
132.797839892246
 30
0.0
 40
0.5
  0
CIRCLE
  5
1C6F0
330
1B896
100
AcDbEntity
  8
AM_5
100
AcDbCircle
 10
4667.753164797042
 20
132.797839892246
 30
0.0
 40
0.5
  0
CIRCLE
  5
1C7FC
330
1B896
100
AcDbEntity
  8
AM_2
100
AcDbCircle
 10
4917.753182929593
 20
159.4626830435587
 30
0.0
 40
3.75
  0
LINE
  5
1C7FD
330
1B896
100
AcDbEntity
  8
AM_2
100
AcDbLine
 10
4918.153183413943
 20
161.0626830435587
 30
0.0
 11
4917.353183413943
 21
161.0626830435587
 31
0.0
  0
LINE
  5
1C7FE
330
1B896
100
AcDbEntity
  8
AM_2
100
AcDbLine
 10
4919.353183413943
 20
159.0626830435588
 30
0.0
 11
4919.353183413943
 21
159.8626830435588
 31
0.0
  0
LINE
  5
1C7FF
330
1B896
100
AcDbEntity
  8
AM_2
100
AcDbLine
 10
4917.353183413943
 20
157.8626830435588
 30
0.0
 11
4918.153183413943
 21
157.8626830435588
 31
0.0
  0
LINE
  5
1C800
330
1B896
100
AcDbEntity
  8
AM_2
100
AcDbLine
 10
4916.153183413943
 20
159.8626830435587
 30
0.0
 11
4916.153183413943
 21
159.0626830435587
 31
0.0
  0
LINE
  5
1C801
330
1B896
100
AcDbEntity
  8
AM_2
100
AcDbLine
 10
4918.453183413943
 20
159.8626830435588
 30
0.0
 11
4919.353183413943
 21
159.8626830435588
 31
0.0
  0
LINE
  5
1C802
330
1B896
100
AcDbEntity
  8
AM_2
100
AcDbLine
 10
4918.153183413943
 20
160.1626830435587
 30
0.0
 11
4918.153183413943
 21
161.0626830435587
 31
0.0
  0
ARC
  5
1C803
330
1B896
100
AcDbEntity
  8
AM_2
100
AcDbCircle
 10
4918.453183413943
 20
160.1626830435587
 30
0.0
 40
0.3
100
AcDbArc
 50
180.0
 51
270.0
  0
LINE
  5
1C804
330
1B896
100
AcDbEntity
  8
AM_2
100
AcDbLine
 10
4917.353183413943
 20
160.1626830435587
 30
0.0
 11
4917.353183413943
 21
161.0626830435587
 31
0.0
  0
LINE
  5
1C805
330
1B896
100
AcDbEntity
  8
AM_2
100
AcDbLine
 10
4917.053183413943
 20
159.8626830435588
 30
0.0
 11
4916.153183413943
 21
159.8626830435588
 31
0.0
  0
ARC
  5
1C806
330
1B896
100
AcDbEntity
  8
AM_2
100
AcDbCircle
 10
4917.053183413943
 20
160.1626830435587
 30
0.0
 40
0.3
100
AcDbArc
 50
270.0
 51
0.0
  0
LINE
  5
1C807
330
1B896
100
AcDbEntity
  8
AM_2
100
AcDbLine
 10
4917.353183413943
 20
158.7626830435588
 30
0.0
 11
4917.353183413943
 21
157.8626830435588
 31
0.0
  0
LINE
  5
1C808
330
1B896
100
AcDbEntity
  8
AM_2
100
AcDbLine
 10
4917.053183413943
 20
159.0626830435587
 30
0.0
 11
4916.153183413943
 21
159.0626830435587
 31
0.0
  0
ARC
  5
1C809
330
1B896
100
AcDbEntity
  8
AM_2
100
AcDbCircle
 10
4917.053183413943
 20
158.7626830435588
 30
0.0
 40
0.3
100
AcDbArc
 50
0.0
 51
90.0
  0
LINE
  5
1C80A
330
1B896
100
AcDbEntity
  8
AM_2
100
AcDbLine
 10
4918.453183413943
 20
159.0626830435587
 30
0.0
 11
4919.353183413943
 21
159.0626830435587
 31
0.0
  0
LINE
  5
1C80B
330
1B896
100
AcDbEntity
  8
AM_2
100
AcDbLine
 10
4918.153183413943
 20
158.7626830435588
 30
0.0
 11
4918.153183413943
 21
157.8626830435588
 31
0.0
  0
ARC
  5
1C80C
330
1B896
100
AcDbEntity
  8
AM_2
100
AcDbCircle
 10
4918.453183413943
 20
158.7626830435588
 30
0.0
 40
0.3
100
AcDbArc
 50
90.0
 51
180.0
  0
LINE
  5
1C80D
330
1B896
100
AcDbEntity
  8
AM_2
100
AcDbLine
 10
4909.153182929593
 20
169.3126830435588
 30
0.0
 11
4908.353182929594
 21
169.3126830435588
 31
0.0
  0
LINE
  5
1C80E
330
1B896
100
AcDbEntity
  8
AM_2
100
AcDbLine
 10
4910.353182929593
 20
167.3126830435588
 30
0.0
 11
4910.353182929593
 21
168.1126830435588
 31
0.0
  0
LINE
  5
1C80F
330
1B896
100
AcDbEntity
  8
AM_2
100
AcDbLine
 10
4908.353182929594
 20
166.1126830435588
 30
0.0
 11
4909.153182929593
 21
166.1126830435588
 31
0.0
  0
LINE
  5
1C810
330
1B896
100
AcDbEntity
  8
AM_2
100
AcDbLine
 10
4907.153182929593
 20
168.1126830435588
 30
0.0
 11
4907.153182929593
 21
167.3126830435588
 31
0.0
  0
LINE
  5
1C811
330
1B896
100
AcDbEntity
  8
AM_2
100
AcDbLine
 10
4909.453182929593
 20
168.1126830435588
 30
0.0
 11
4910.353182929593
 21
168.1126830435588
 31
0.0
  0
LINE
  5
1C812
330
1B896
100
AcDbEntity
  8
AM_2
100
AcDbLine
 10
4909.153182929593
 20
168.4126830435588
 30
0.0
 11
4909.153182929593
 21
169.3126830435588
 31
0.0
  0
ARC
  5
1C813
330
1B896
100
AcDbEntity
  8
AM_2
100
AcDbCircle
 10
4909.453182929593
 20
168.4126830435588
 30
0.0
 40
0.3
100
AcDbArc
 50
180.0
 51
270.0
  0
LINE
  5
1C814
330
1B896
100
AcDbEntity
  8
AM_2
100
AcDbLine
 10
4908.353182929594
 20
168.4126830435588
 30
0.0
 11
4908.353182929594
 21
169.3126830435588
 31
0.0
  0
LINE
  5
1C815
330
1B896
100
AcDbEntity
  8
AM_2
100
AcDbLine
 10
4908.053182929593
 20
168.1126830435588
 30
0.0
 11
4907.153182929593
 21
168.1126830435588
 31
0.0
  0
ARC
  5
1C816
330
1B896
100
AcDbEntity
  8
AM_2
100
AcDbCircle
 10
4908.053182929593
 20
168.4126830435588
 30
0.0
 40
0.3
100
AcDbArc
 50
270.0
 51
0.0
  0
LINE
  5
1C817
330
1B896
100
AcDbEntity
  8
AM_2
100
AcDbLine
 10
4908.353182929594
 20
167.0126830435588
 30
0.0
 11
4908.353182929594
 21
166.1126830435588
 31
0.0
  0
LINE
  5
1C818
330
1B896
100
AcDbEntity
  8
AM_2
100
AcDbLine
 10
4908.053182929593
 20
167.3126830435588
 30
0.0
 11
4907.153182929593
 21
167.3126830435588
 31
0.0
  0
ARC
  5
1C819
330
1B896
100
AcDbEntity
  8
AM_2
100
AcDbCircle
 10
4908.053182929593
 20
167.0126830435588
 30
0.0
 40
0.3
100
AcDbArc
 50
0.0
 51
90.0
  0
LINE
  5
1C81A
330
1B896
100
AcDbEntity
  8
AM_2
100
AcDbLine
 10
4909.453182929593
 20
167.3126830435588
 30
0.0
 11
4910.353182929593
 21
167.3126830435588
 31
0.0
  0
LINE
  5
1C81B
330
1B896
100
AcDbEntity
  8
AM_2
100
AcDbLine
 10
4909.153182929593
 20
167.0126830435588
 30
0.0
 11
4909.153182929593
 21
166.1126830435588
 31
0.0
  0
ARC
  5
1C81C
330
1B896
100
AcDbEntity
  8
AM_2
100
AcDbCircle
 10
4909.453182929593
 20
167.0126830435588
 30
0.0
 40
0.3
100
AcDbArc
 50
90.0
 51
180.0
  0
LINE
  5
1C81D
330
1B896
100
AcDbEntity
  8
AM_2
100
AcDbLine
 10
4928.353182929594
 20
167.3126830435588
 30
0.0
 11
4928.353182929594
 21
168.1126830435588
 31
0.0
  0
LINE
  5
1C81E
330
1B896
100
AcDbEntity
  8
AM_2
100
AcDbLine
 10
4926.353182929593
 20
166.1126830435588
 30
0.0
 11
4927.153182929593
 21
166.1126830435588
 31
0.0
  0
LINE
  5
1C81F
330
1B896
100
AcDbEntity
  8
AM_2
100
AcDbLine
 10
4927.453182929593
 20
168.1126830435588
 30
0.0
 11
4928.353182929594
 21
168.1126830435588
 31
0.0
  0
ARC
  5
1C820
330
1B896
100
AcDbEntity
  8
AM_2
100
AcDbCircle
 10
4927.453182929593
 20
168.4126830435588
 30
0.0
 40
0.3
100
AcDbArc
 50
180.0
 51
270.0
  0
LINE
  5
1C821
330
1B896
100
AcDbEntity
  8
AM_2
100
AcDbLine
 10
4926.353182929593
 20
167.0126830435588
 30
0.0
 11
4926.353182929593
 21
166.1126830435588
 31
0.0
  0
ARC
  5
1C822
330
1B896
100
AcDbEntity
  8
AM_2
100
AcDbCircle
 10
4926.053182929593
 20
167.0126830435588
 30
0.0
 40
0.3
100
AcDbArc
 50
0.0
 51
90.0
  0
LINE
  5
1C823
330
1B896
100
AcDbEntity
  8
AM_2
100
AcDbLine
 10
4927.453182929593
 20
167.3126830435588
 30
0.0
 11
4928.353182929594
 21
167.3126830435588
 31
0.0
  0
LINE
  5
1C824
330
1B896
100
AcDbEntity
  8
AM_2
100
AcDbLine
 10
4927.153182929593
 20
167.0126830435588
 30
0.0
 11
4927.153182929593
 21
166.1126830435588
 31
0.0
  0
ARC
  5
1C825
330
1B896
100
AcDbEntity
  8
AM_2
100
AcDbCircle
 10
4927.453182929593
 20
167.0126830435588
 30
0.0
 40
0.3
100
AcDbArc
 50
90.0
 51
180.0
  0
ARC
  5
1C826
330
1B896
100
AcDbEntity
  8
AM_2
100
AcDbCircle
 10
4917.753182929593
 20
168.9119584059587
 30
0.0
 40
18.7
100
AcDbArc
 50
137.0278363282899
 51
54.2727480120164
  0
ARC
  5
1C827
330
1B896
100
AcDbEntity
  8
AM_2
100
AcDbCircle
 10
4917.753182929593
 20
168.9119584059587
 30
0.0
 40
17.7
100
AcDbArc
 50
138.2978581556842
 51
50.84529794728204
  0
ARC
  5
1C828
330
1B896
100
AcDbEntity
  8
AM_2
100
AcDbCircle
 10
4908.753182929594
 20
167.7126830435588
 30
0.0
 40
3.75
100
AcDbArc
 50
86.54530732576775
 51
333.0557031625947
  0
ARC
  5
1C829
330
1B896
100
AcDbEntity
  8
AM_2
100
AcDbCircle
 10
4926.753182929593
 20
167.7126830435588
 30
0.0
 40
3.75
100
AcDbArc
 50
214.0090665530377
 51
58.47683335363637
  0
LINE
  5
1C82A
330
1B896
100
AcDbEntity
  8
AM_2
100
AcDbLine
 10
4926.053182929593
 20
167.3126830435588
 30
0.0
 11
4925.652694772195
 21
167.3126830435588
 31
0.0
  0
LINE
  5
1C82B
330
1B896
100
AcDbEntity
  8
AM_2
100
AcDbLine
 10
4927.153182929593
 20
168.4126830435588
 30
0.0
 11
4927.153182929593
 21
168.8131712009587
 31
0.0
  0
TEXT
  5
1CC31
330
1B896
100
AcDbEntity
  8
AM_5
100
AcDbText
 10
4839.170430958287
 20
175.6390396212199
 30
0.0
 40
6.0
  1
ピボットヒンジ
 41
0.9
100
AcDbText
  0
LINE
  5
1CC32
330
1B896
100
AcDbEntity
  8
AM_5
100
AcDbLine
 10
4898.777854051692
 20
182.4652596449737
 30
0.0
 11
4885.554131255243
 21
174.0390396212197
 31
0.0
1001
ACAD
1000
DSTYLE
1002
{
1070
    40
1040
3.0
1070
   176
1070
     4
1070
    41
1040
1.5
1070
   147
1040
1.0
1070
    77
1070
     0
1002
}
  0
LINE
  5
1CC33
330
1B896
100
AcDbEntity
  8
AM_5
100
AcDbLine
 10
4837.170430958287
 20
174.0390396212197
 30
0.0
 11
4885.554131255243
 21
174.0390396212197
 31
0.0
1001
ACAD
1000
DSTYLE
1002
{
1070
    40
1040
3.0
1070
   176
1070
     4
1070
    41
1040
1.5
1070
   147
1040
1.0
1070
    77
1070
     0
1002
}
  0
LINE
  5
1CC34
330
1B896
100
AcDbEntity
  8
AM_5
100
AcDbLine
 10
4899.185550409359
 20
181.835748977912
 30
0.0
 11
4902.554918054063
 21
184.9114377909792
 31
0.0
210
0.0
220
0.0
230
-1.0
  0
LINE
  5
1CC35
330
1B896
100
AcDbEntity
  8
AM_5
100
AcDbLine
 10
4898.370157694024
 20
183.0947703120356
 30
0.0
 11
4902.554918054063
 21
184.9114377909792
 31
0.0
210
0.0
220
0.0
230
-1.0
  0
LINE
  5
1CC36
330
1B896
100
AcDbEntity
  8
AM_5
100
AcDbLine
 10
4902.554918054063
 20
184.9114377909792
 30
0.0
 11
4898.777854051692
 21
182.4652596449737
 31
0.0
210
0.0
220
0.0
230
-1.0
  0
TEXT
  5
1CC37
330
1B896
100
AcDbEntity
  8
AM_5
100
AcDbText
 10
4866.252734977176
 20
155.8516008982788
 30
0.0
 40
6.0
  1
下受け
 41
0.9
100
AcDbText
  0
LINE
  5
1CC38
330
1B896
100
AcDbEntity
  8
AM_5
100
AcDbLine
 10
4896.072350700833
 20
161.1218898413832
 30
0.0
 11
4885.555152128976
 21
154.2516008982787
 31
0.0
1001
ACAD
1000
DSTYLE
1002
{
1070
    40
1040
3.0
1070
   176
1070
     4
1070
    41
1040
1.5
1070
   147
1040
1.0
1070
    77
1070
     0
1002
}
  0
LINE
  5
1CC39
330
1B896
100
AcDbEntity
  8
AM_5
100
AcDbLine
 10
4864.252734977175
 20
154.2516008982787
 30
0.0
 11
4885.555152128976
 21
154.2516008982787
 31
0.0
1001
ACAD
1000
DSTYLE
1002
{
1070
    40
1040
3.0
1070
   176
1070
     4
1070
    41
1040
1.5
1070
   147
1040
1.0
1070
    77
1070
     0
1002
}
  0
LINE
  5
1CC3A
330
1B896
100
AcDbEntity
  8
AM_5
100
AcDbLine
 10
4896.480047058502
 20
160.4923791743214
 30
0.0
 11
4899.849414703204
 21
163.5680679873886
 31
0.0
210
0.0
220
0.0
230
-1.0
  0
LINE
  5
1CC3B
330
1B896
100
AcDbEntity
  8
AM_5
100
AcDbLine
 10
4895.664654343166
 20
161.751400508445
 30
0.0
 11
4899.849414703204
 21
163.5680679873886
 31
0.0
210
0.0
220
0.0
230
-1.0
  0
LINE
  5
1CC3C
330
1B896
100
AcDbEntity
  8
AM_5
100
AcDbLine
 10
4899.849414703204
 20
163.5680679873886
 30
0.0
 11
4896.072350700833
 21
161.1218898413832
 31
0.0
210
0.0
220
0.0
230
-1.0
  0
VIEWPORT
  5
1B810
102
{ACAD_XDICTIONARY
360
1C9D0
102
}
330
1B892
100
AcDbEntity
 67
     1
  8
0
100
AcDbViewport
 10
219.1102749664252
 20
32.94755905506355
 30
0.0
 40
192.1439262016693
 41
94.52341437258136
 68
     2
 69
     1
1001
ACAD
1000
MVIEW
1002
{
1070
    16
1010
0.0
1020
0.0
1030
0.0
1010
0.0
1020
0.0
1030
1.0
1040
0.0
1040
94.52341437258136
1040
219.1102749664252
1040
32.94755905506355
1040
50.0
1040
0.0
1040
0.0
1070
    16
1070
   100
1070
     1
1070
     1
1070
     0
1070
     0
1070
     0
1070
     0
1040
0.0
1040
0.0
1040
0.0
1040
10.0
1040
10.0
1040
10.0
1040
10.0
1070
     0
1002
{
1002
}
1002
}
1001
GENIUS_GENOBJ-N-SDF_13
1002
{
1000
OWNER
1000
GEN
1002
}
1001
GENIUS_GENODEF_13
1002
{
1000
HIER
1070
     0
1002
}
1002
{
1000
MANEDIT
1070
     0
1002
}
1002
{
1000
NOSEL
1070
     0
1002
}
1002
{
1000
BEHIND
1070
     0
1002
}
1002
{
1000
OTHER
1070
     0
1002
}
1002
{
1000
REACTOR
1002
}
1001
GENIUS_GENSCREG_15
1000
PF
1040
1.0
1000
DF
1040
1.0
1000
MIN
1011
123.0383118655905
1021
-14.31414813122712
1031
0.0
1000
MAX
1011
315.1822380672598
1021
80.20926624135423
1031
0.0
1000
FLAGS
1070
     2
  0
VIEWPORT
  5
1B811
102
{ACAD_XDICTIONARY
360
1C9D2
102
}
330
1B892
100
AcDbEntity
 67
     1
  8
AM_0
100
AcDbViewport
 10
133.3499908447265
 20
101.5999970436096
 30
0.0
 40
429.1987358241462
 41
228.4221935424805
 68
     1
 69
     2
1001
ACAD
1000
MVIEW
1002
{
1070
    16
1010
0.0
1020
0.0
1030
0.0
1010
0.0
1020
0.0
1030
1.0
1040
0.0
1040
576.69270833791
1040
-202.0655327728323
1040
665.3552720770292
1040
50.0
1040
0.0
1040
0.0
1070
     0
1070
   100
1070
     1
1070
     1
1070
     0
1070
     0
1070
     0
1070
     0
1040
0.0
1040
0.0
1040
0.0
1040
5.0
1040
5.0
1040
20.0
1040
20.0
1070
     0
1002
{
1002
}
1002
}
1001
GENIUS_GENOBJ-N-SDF_13
1002
{
1000
OWNER
1000
GEN
1002
}
1001
GENIUS_GENODEF_13
1002
{
1000
HIER
1070
     0
1002
}
1002
{
1000
MANEDIT
1070
     0
1002
}
1002
{
1000
NOSEL
1070
     0
1002
}
1002
{
1000
BEHIND
1070
     0
1002
}
1002
{
1000
OTHER
1070
     0
1002
}
1002
{
1000
REACTOR
1002
}
1001
GENIUS_GENSCREG_15
1000
PF
1040
9.752589343509985
1000
DF
1040
1.0
1000
MIN
1011
-81.24937706734659
1021
-12.61109972763063
1031
0.0
1000
MAX
1011
347.9493587567997
1021
215.8110938148498
1031
0.0
1000
FLAGS
1070
     2
  0
ENDSEC
  0
SECTION
  2
OBJECTS
  0
DICTIONARY
  5
1B86C
330
0
100
AcDbDictionary
  3
ACAD_2007HEADERVARS_RT
350
1C9CE
  3
ACAD_COLOR
350
1B88F
  3
ACAD_GROUP
350
1B86D
  3
ACAD_LAYOUT
350
1B88E
  3
ACAD_MATERIAL
350
1B870
  3
ACAD_MLINESTYLE
350
1B88B
  3
ACAD_PLOTSETTINGS
350
1B88D
  3
ACAD_TABLESTYLE
350
1B890
  3
ACAD_VISUALSTYLE
350
1B874
  3
ACMDICTIONARY
350
1B979
  3
AMG
350
1B921
  3
AMGSNAPSETTINGS
350
1B9AE
  3
DWGPROPS
350
1C9CD
1001
ACAD
1000
TREAT_AS_HARD
1070
     0
  0
DICTIONARY
  5
1BB85
330
1B868
100
AcDbDictionary
  3
ACAD_XREC_ROUNDTRIP
350
1C9D4
1001
ACAD
1000
TREAT_AS_HARD
1070
     1
  0
DICTIONARY
  5
1B9CE
330
1B862
100
AcDbDictionary
  3
ACAD_LAYERFILTERS
350
1BD4D
  3
ACAD_LAYERSTATES
350
1B9CF
  3
ACLYDICTIONARY
350
1BD4C
1001
ACAD
1000
TREAT_AS_HARD
1070
     1
  0
DICTIONARY
  5
1C9DB
330
1B885
100
AcDbDictionary
  3
ACAD_XREC_ROUNDTRIP
350
1C9DC
1001
ACAD
1000
TREAT_AS_HARD
1070
     1
  0
DICTIONARY
  5
1C9EF
330
1B905
100
AcDbDictionary
  3
ACAD_XREC_ROUNDTRIP
350
1C9F0
1001
ACAD
1000
TREAT_AS_HARD
1070
     1
  0
DICTIONARY
  5
1C9F1
330
1B906
100
AcDbDictionary
  3
ACAD_XREC_ROUNDTRIP
350
1C9F2
1001
ACAD
1000
TREAT_AS_HARD
1070
     1
  0
DICTIONARY
  5
1C9F3
330
1B907
100
AcDbDictionary
  3
ACAD_XREC_ROUNDTRIP
350
1C9F4
1001
ACAD
1000
TREAT_AS_HARD
1070
     1
  0
DICTIONARY
  5
1C9F5
330
1B908
100
AcDbDictionary
  3
ACAD_XREC_ROUNDTRIP
350
1C9F6
1001
ACAD
1000
TREAT_AS_HARD
1070
     1
  0
DICTIONARY
  5
1C9F7
330
1B909
100
AcDbDictionary
  3
ACAD_XREC_ROUNDTRIP
350
1C9F8
1001
ACAD
1000
TREAT_AS_HARD
1070
     1
  0
DICTIONARY
  5
1C9F9
330
1B90A
100
AcDbDictionary
  3
ACAD_XREC_ROUNDTRIP
350
1C9FA
1001
ACAD
1000
TREAT_AS_HARD
1070
     1
  0
DICTIONARY
  5
1C9FB
330
1B90B
100
AcDbDictionary
  3
ACAD_XREC_ROUNDTRIP
350
1C9FC
1001
ACAD
1000
TREAT_AS_HARD
1070
     1
  0
DICTIONARY
  5
1C9FD
330
1B90C
100
AcDbDictionary
  3
ACAD_XREC_ROUNDTRIP
350
1C9FE
1001
ACAD
1000
TREAT_AS_HARD
1070
     1
  0
DICTIONARY
  5
1C9FF
330
1B90D
100
AcDbDictionary
  3
ACAD_XREC_ROUNDTRIP
350
1CA00
1001
ACAD
1000
TREAT_AS_HARD
1070
     1
  0
DICTIONARY
  5
1CA01
330
1B90E
100
AcDbDictionary
  3
ACAD_XREC_ROUNDTRIP
350
1CA02
1001
ACAD
1000
TREAT_AS_HARD
1070
     1
  0
DICTIONARY
  5
1BA51
330
1BA50
100
AcDbDictionary
  3
ACAD_XREC_ROUNDTRIP
350
1CA03
  3
ADSK_XREC_LAYER_RECONCILED
350
1BA52
1001
ACAD
1000
TREAT_AS_HARD
1070
     1
  0
DICTIONARY
  5
1C9E3
330
1B8AE
100
AcDbDictionary
  3
ACAD_XREC_ROUNDTRIP
350
1C9E4
1001
ACAD
1000
TREAT_AS_HARD
1070
     1
  0
DICTIONARY
  5
1C9E5
330
1B8AF
100
AcDbDictionary
  3
ACAD_XREC_ROUNDTRIP
350
1C9E6
1001
ACAD
1000
TREAT_AS_HARD
1070
     1
  0
DICTIONARY
  5
1C9E7
330
1B8B0
100
AcDbDictionary
  3
ACAD_XREC_ROUNDTRIP
350
1C9E8
1001
ACAD
1000
TREAT_AS_HARD
1070
     1
  0
DICTIONARY
  5
1C9E9
330
1B8B1
100
AcDbDictionary
  3
ACAD_XREC_ROUNDTRIP
350
1C9EA
1001
ACAD
1000
TREAT_AS_HARD
1070
     1
  0
DICTIONARY
  5
1C9EB
330
1B8B2
100
AcDbDictionary
  3
ACAD_XREC_ROUNDTRIP
350
1C9EC
1001
ACAD
1000
TREAT_AS_HARD
1070
     1
  0
DICTIONARY
  5
1C9ED
330
1B8B3
100
AcDbDictionary
  3
ACAD_XREC_ROUNDTRIP
350
1C9EE
1001
ACAD
1000
TREAT_AS_HARD
1070
     1
  0
DICTIONARY
  5
1B9BD
330
1B896
100
AcDbDictionary
  3
ACAD_LAYOUTSELFREF
350
1CC72
  3
ACAD_SORTENTS
350
1B9BE
1001
ACAD
1000
TREAT_AS_HARD
1070
     1
  0
DICTIONARY
  5
1CC70
330
1B892
100
AcDbDictionary
  3
ACAD_LAYOUTSELFREF
350
1CC71
  0
DICTIONARY
  5
1C9D0
330
1B810
100
AcDbDictionary
  3
ACAD_XREC_ROUNDTRIP
350
1C9D1
1001
ACAD
1000
TREAT_AS_HARD
1070
     1
  0
DICTIONARY
  5
1C9D2
330
1B811
100
AcDbDictionary
  3
ACAD_XREC_ROUNDTRIP
350
1C9D3
1001
ACAD
1000
TREAT_AS_HARD
1070
     1
  0
DICTIONARY
  5
1C9CE
102
{ACAD_REACTORS
330
1B86C
102
}
330
1B86C
100
AcDbDictionary
  3
DIMARCSYM
350
1C9CF
1001
ACAD
1000
TREAT_AS_HARD
1070
     0
  0
DICTIONARY
  5
1B88F
102
{ACAD_REACTORS
330
1B86C
102
}
330
1B86C
100
AcDbDictionary
1001
ACAD
1000
TREAT_AS_HARD
1070
     0
  0
DICTIONARY
  5
1B86D
102
{ACAD_REACTORS
330
1B86C
102
}
330
1B86C
100
AcDbDictionary
1001
ACAD
1000
TREAT_AS_HARD
1070
     0
  0
DICTIONARY
  5
1B88E
102
{ACAD_REACTORS
330
1B86C
102
}
330
1B86C
100
AcDbDictionary
1001
ACAD
1000
TREAT_AS_HARD
1070
     0
  0
DICTIONARY
  5
1B870
102
{ACAD_REACTORS
330
1B86C
102
}
330
1B86C
100
AcDbDictionary
  3
BYBLOCK
350
1B872
  3
BYLAYER
350
1B871
  3
GLOBAL
350
1B873
1001
ACAD
1000
TREAT_AS_HARD
1070
     0
  0
DICTIONARY
  5
1B88B
102
{ACAD_REACTORS
330
1B86C
102
}
330
1B86C
100
AcDbDictionary
  3
STANDARD
350
1B88C
1001
ACAD
1000
TREAT_AS_HARD
1070
     0
  0
DICTIONARY
  5
1B88D
102
{ACAD_REACTORS
330
1B86C
102
}
330
1B86C
100
AcDbDictionary
1001
ACAD
1000
TREAT_AS_HARD
1070
     0
  0
DICTIONARY
  5
1B890
102
{ACAD_REACTORS
330
1B86C
102
}
330
1B86C
100
AcDbDictionary
  3
STANDARD
350
1B891
1001
ACAD
1000
TREAT_AS_HARD
1070
     0
  0
DICTIONARY
  5
1B874
102
{ACAD_REACTORS
330
1B86C
102
}
330
1B86C
100
AcDbDictionary
  3
2DWIREFRAME
350
1B87A
  3
3D_HIDDEN
350
1B87C
  3
3DWIREFRAME
350
1B87B
  3
BASIC
350
1B879
  3
BRIGHTEN
350
1B880
  3
COLORCHANGE
350
1B884
  3
CONCEPTUAL
350
1B87D
  3
DIM
350
1B87F
  3
FACEPATTERN
350
1B883
  3
FLAT
350
1B875
  3
FLATWITHEDGES
350
1B876
  3
GOURAUD
350
1B877
  3
GOURAUDWITHEDGES
350
1B878
  3
LINEPATTERN
350
1B882
  3
REALISTIC
350
1B87E
  3
THICKEN
350
1B881
1001
ACAD
1000
TREAT_AS_HARD
1070
     0
  0
DICTIONARY
  5
1B979
102
{ACAD_REACTORS
330
1B86C
102
}
330
1B86C
100
AcDbDictionary
  3
ACMSTDDICTIONARY
350
1B984
  3
AMDTSECTSYM_ARROWCOLOR
350
1B99D
1001
ACAD
1000
TREAT_AS_HARD
1070
     0
  0
DICTIONARY
  5
1B921
102
{ACAD_REACTORS
330
1B86C
102
}
330
1B86C
100
AcDbDictionary
1001
ACAD
1000
TREAT_AS_HARD
1070
     0
  0
DICTIONARY
  5
1B9AE
102
{ACAD_REACTORS
330
1B86C
102
}
330
1B86C
100
AcDbDictionary
1001
ACAD
1000
TREAT_AS_HARD
1070
     0
  0
XRECORD
  5
1C9CD
102
{ACAD_REACTORS
330
1B86C
102
}
330
1B86C
100
AcDbXrecord
  1
DWGPROPS COOKIE
  2

  3

  4

  6

  7

  8
c-ikeda
  9

300
=
301
=
302
=
303
=
304
=
305
=
306
=
307
=
308
=
309
=
 40
0.8451498148148147
 41
2454489.086194294
 42
2460349.59683015
  1

 90
        0
  0
XRECORD
  5
1C9D4
102
{ACAD_REACTORS
330
1BB85
102
}
330
1BB85
100
AcDbXrecord
102
VTR_0.000_0.000_1.000_1.000_VISUALSTYLE
340
1B87A
102
VTR_0.000_0.000_1.000_1.000_GRIDDISPLAY
 70
     3
102
VTR_0.000_0.000_1.000_1.000_GRIDMAJOR
 70
     5
102
VTR_0.000_0.000_1.000_1.000_DEFAULTLIGHTING
280
     1
102
VTR_0.000_0.000_1.000_1.000_DEFAULTLIGHTINGTYPE
 70
     0
102
VTR_0.000_0.000_1.000_1.000_BRIGHTNESS
141
0.0
102
VTR_0.000_0.000_1.000_1.000_CONTRAST
142
0.0
  0
DICTIONARY
  5
1BD4D
102
{ACAD_REACTORS
330
1B9CE
102
}
330
1B9CE
100
AcDbDictionary
1001
ACAD
1000
TREAT_AS_HARD
1070
     0
  0
DICTIONARY
  5
1B9CF
102
{ACAD_REACTORS
330
1B9CE
102
}
330
1B9CE
100
AcDbDictionary
1001
ACAD
1000
TREAT_AS_HARD
1070
     0
  0
DICTIONARY
  5
1BD4C
102
{ACAD_REACTORS
330
1B9CE
102
}
330
1B9CE
100
AcDbDictionary
1001
ACAD
1000
<All
1000
TREAT_AS_HARD
1070
     0
  0
XRECORD
  5
1C9DC
102
{ACAD_REACTORS
330
1C9DB
102
}
330
1C9DB
100
AcDbXrecord
102
MATERIAL
340
1B873
  0
XRECORD
  5
1C9F0
102
{ACAD_REACTORS
330
1C9EF
102
}
330
1C9EF
100
AcDbXrecord
102
MATERIAL
340
1B873
  0
XRECORD
  5
1C9F2
102
{ACAD_REACTORS
330
1C9F1
102
}
330
1C9F1
100
AcDbXrecord
102
MATERIAL
340
1B873
  0
XRECORD
  5
1C9F4
102
{ACAD_REACTORS
330
1C9F3
102
}
330
1C9F3
100
AcDbXrecord
102
MATERIAL
340
1B873
  0
XRECORD
  5
1C9F6
102
{ACAD_REACTORS
330
1C9F5
102
}
330
1C9F5
100
AcDbXrecord
102
MATERIAL
340
1B873
  0
XRECORD
  5
1C9F8
102
{ACAD_REACTORS
330
1C9F7
102
}
330
1C9F7
100
AcDbXrecord
102
MATERIAL
340
1B873
  0
XRECORD
  5
1C9FA
102
{ACAD_REACTORS
330
1C9F9
102
}
330
1C9F9
100
AcDbXrecord
102
MATERIAL
340
1B873
  0
XRECORD
  5
1C9FC
102
{ACAD_REACTORS
330
1C9FB
102
}
330
1C9FB
100
AcDbXrecord
102
MATERIAL
340
1B873
  0
XRECORD
  5
1C9FE
102
{ACAD_REACTORS
330
1C9FD
102
}
330
1C9FD
100
AcDbXrecord
102
MATERIAL
340
1B873
  0
XRECORD
  5
1CA00
102
{ACAD_REACTORS
330
1C9FF
102
}
330
1C9FF
100
AcDbXrecord
102
MATERIAL
340
1B873
  0
XRECORD
  5
1CA02
102
{ACAD_REACTORS
330
1CA01
102
}
330
1CA01
100
AcDbXrecord
102
MATERIAL
340
1B873
  0
XRECORD
  5
1CA03
102
{ACAD_REACTORS
330
1BA51
102
}
330
1BA51
100
AcDbXrecord
102
MATERIAL
340
1B873
  0
XRECORD
  5
1BA52
102
{ACAD_REACTORS
330
1BA51
102
}
330
1BA51
100
AcDbXrecord
290
     0
  0
XRECORD
  5
1C9E4
102
{ACAD_REACTORS
330
1C9E3
102
}
330
1C9E3
100
AcDbXrecord
102
CAMERAPLOTTABLE
 70
     0
102
VISUALSTYLENONE
 70
     1
  0
XRECORD
  5
1C9E6
102
{ACAD_REACTORS
330
1C9E5
102
}
330
1C9E5
100
AcDbXrecord
102
CAMERAPLOTTABLE
 70
     0
102
VISUALSTYLENONE
 70
     1
  0
XRECORD
  5
1C9E8
102
{ACAD_REACTORS
330
1C9E7
102
}
330
1C9E7
100
AcDbXrecord
102
CAMERAPLOTTABLE
 70
     0
102
VISUALSTYLENONE
 70
     1
  0
XRECORD
  5
1C9EA
102
{ACAD_REACTORS
330
1C9E9
102
}
330
1C9E9
100
AcDbXrecord
102
CAMERAPLOTTABLE
 70
     0
102
VISUALSTYLENONE
 70
     1
  0
XRECORD
  5
1C9EC
102
{ACAD_REACTORS
330
1C9EB
102
}
330
1C9EB
100
AcDbXrecord
102
CAMERAPLOTTABLE
 70
     0
102
VISUALSTYLENONE
 70
     1
  0
XRECORD
  5
1C9EE
102
{ACAD_REACTORS
330
1C9ED
102
}
330
1C9ED
100
AcDbXrecord
102
CAMERAPLOTTABLE
 70
     0
102
VISUALSTYLENONE
 70
     1
  0
XRECORD
  5
1CC72
102
{ACAD_REACTORS
330
1B9BD
102
}
330
1B9BD
100
AcDbXrecord
340
1B896
  0
SORTENTSTABLE
  5
1B9BE
102
{ACAD_REACTORS
330
1B9BD
102
}
330
1B9BD
100
AcDbSortentsTable
330
1B896
331
1B5F8
  5
1B5FA
331
1B5F6
  5
1B5F8
331
1B5EF
  5
1B5F1
331
1B5E8
  5
1B5EA
331
1B5E1
  5
1B5E3
331
1B5F3
  5
1B5F5
331
1B5EC
  5
1B5EE
331
1B5E5
  5
1B5E7
331
1B5DE
  5
1B5E0
331
1B5E2
  5
1B5E4
331
1B5F7
  5
1B5F9
331
1B5F0
  5
1B5F2
331
1B5E9
  5
1B5EB
331
1B5F9
  5
1B5FB
331
1B5F4
  5
1B5F6
331
1B5ED
  5
1B5EF
331
1B5E6
  5
1B5E8
331
1B5DF
  5
1B5E1
331
1B5EA
  5
1B5EC
331
1B5F1
  5
1B5F3
331
1B5E3
  5
1B5E5
331
1B5F5
  5
1B5F7
331
1B5EE
  5
1B5F0
331
1B5E7
  5
1B5E9
331
1B5E0
  5
1B5E2
331
1B5F2
  5
1B5F4
331
1B5EB
  5
1B5ED
331
1B5E4
  5
1B5E6
  0
XRECORD
  5
1CC71
102
{ACAD_REACTORS
330
1CC70
102
}
330
1CC70
100
AcDbXrecord
340
1B892
  0
XRECORD
  5
1C9D1
102
{ACAD_REACTORS
330
1C9D0
102
}
330
1C9D0
100
AcDbXrecord
102
SHADEPLOT
 70
     0
102
VISUALSTYLE
340
1B87A
102
GRIDDISPLAY
 70
     0
102
GRIDMAJOR
 70
     5
102
DEFAULTLIGHTING
280
     1
102
DEFAULTLIGHTINGTYPE
 70
     1
102
BRIGHTNESS
141
0.0
102
CONTRAST
142
0.0
  0
XRECORD
  5
1C9D3
102
{ACAD_REACTORS
330
1C9D2
102
}
330
1C9D2
100
AcDbXrecord
102
SHADEPLOT
 70
     0
102
VISUALSTYLE
340
1B87A
102
GRIDDISPLAY
 70
     0
102
GRIDMAJOR
 70
     5
102
DEFAULTLIGHTING
280
     1
102
DEFAULTLIGHTINGTYPE
 70
     1
102
BRIGHTNESS
141
0.0
102
CONTRAST
142
0.0
  0
XRECORD
  5
1C9CF
102
{ACAD_REACTORS
330
1C9CE
102
}
330
1C9CE
100
AcDbXrecord
 70
     1
  0
ACAD_ZOMBIE_OBJECT
  5
1B872
102
{ACAD_XDICTIONARY
360
1C9D7
102
}
102
{ACAD_REACTORS
330
1B870
102
}
330
1B870
100
AcDbZombieObject
 90
      499
 91
      592
 93
      582
310
42109E509B1BD8DAC02004014040405AA6A9AA4060050101016A9AA6A9018000000000000E03F4040405AA6A9AA40650101016A9AA6A90190101016A9AA6A90194040405AA6A9AA400
 94
        0
1001
ACAD
1000
AcadProxyRoundTripData
1071
      501
1071
   917527
1070
     0
  0
ACAD_ZOMBIE_OBJECT
  5
1B871
102
{ACAD_XDICTIONARY
360
1C9D5
102
}
102
{ACAD_REACTORS
330
1B870
102
}
330
1B870
100
AcDbZombieObject
 90
      499
 91
      592
 93
      582
310
42109E53185E595C802004014040405AA6A9AA4060050101016A9AA6A9018000000000000E03F4040405AA6A9AA40650101016A9AA6A90190101016A9AA6A90194040405AA6A9AA400
 94
        0
1001
ACAD
1000
AcadProxyRoundTripData
1071
      501
1071
   917527
1070
     0
  0
ACAD_ZOMBIE_OBJECT
  5
1B873
102
{ACAD_XDICTIONARY
360
1C9D9
102
}
102
{ACAD_REACTORS
330
1B870
102
}
330
1B870
100
AcDbZombieObject
 90
      499
 91
      592
 93
      574
310
41D1DB1BD8985B002004014040405AA6A9AA4060050101016A9AA6A9018000000000000E03F4040405AA6A9AA40650101016A9AA6A90190101016A9AA6A90194040405AA6A9AA400
 94
        0
1001
ACAD
1000
AcadProxyRoundTripData
1071
      501
1071
   917527
1070
     0
  0
MLINESTYLE
  5
1B88C
102
{ACAD_REACTORS
330
1B88B
102
}
330
1B88B
100
AcDbMlineStyle
  2
STANDARD
 70
     0
  3

 62
   256
 51
90.0
 52
90.0
 71
     2
 49
0.5
 62
   256
  6
BYLAYER
 49
-0.5
 62
   256
  6
BYLAYER
  0
ACAD_ZOMBIE_OBJECT
  5
1B891
102
{ACAD_XDICTIONARY
360
1C9DD
102
}
102
{ACAD_REACTORS
330
1B890
102
}
330
1B890
100
AcDbZombieObject
 90
      499
 91
      592
 93
     1849
310
4254DD185B99185C990028B81E85EB51B8AE3F2E07A17AD46E2B8FC02B5E8DC0F42B1CFD028000000C1008070000C3001FDFF8000000C1003FBFF000000182007F7FE00000030400FEFFC00000060801FDFF8000000C1003FBFF00000018200000000000000681FA0B0000001820100E000186003FBFF000000182007F7FE0
310
0000030400FEFFC00000060801FDFF8000000C1003FBFF000000182007F7FE000000304000AD7A3703D0AC73F4160000003040201C00030C007F7FE00000030400FEFFC00000060801FDFF8000000C1003FBFF000000182007F7FE00000030400FEFFC000000608000
340
1B886
340
1B886
340
1B886
 94
        0
1001
ACAD
1000
AcadProxyRoundTripData
1071
      503
1071
   917527
1070
     0
  0
ACAD_ZOMBIE_OBJECT
  5
1B87A
102
{ACAD_REACTORS
330
1B874
102
}
330
1B874
100
AcDbZombieObject
 90
      499
 91
      592
 93
      444
310
430C9915DA5C99599C985B59401049028333333333333E3BF0000000000000FB0107901411070040501600405405064090741402480A0340
 94
        0
1001
ACAD
1000
AcDbSavedByObjectVersion
1070
     0
1000
AcadProxyRoundTripData
1071
      502
1071
   917527
1070
     0
  0
ACAD_ZOMBIE_OBJECT
  5
1B87C
102
{ACAD_REACTORS
330
1B874
102
}
330
1B874
100
AcDbZombieObject
 90
      499
 91
      592
 93
      508
310
428CD108121A5919195B8010640502408333333333333E3BF0000000000000FB01079024090700405020000000000001110200405405064090740C02480A0344
 94
        0
1001
ACAD
1000
AcDbSavedByObjectVersion
1070
     0
1000
AcadProxyRoundTripData
1071
      502
1071
   917527
1070
     0
  0
ACAD_ZOMBIE_OBJECT
  5
1B87B
102
{ACAD_REACTORS
330
1B874
102
}
330
1B874
100
AcDbZombieObject
 90
      499
 91
      592
 93
      444
310
430CD915DA5C99599C985B59401059028333333333333E3BF0000000000000FB0107901411070040501600405405064090741402480A0340
 94
        0
1001
ACAD
1000
AcDbSavedByObjectVersion
1070
     0
1000
AcadProxyRoundTripData
1071
      502
1071
   917527
1070
     0
  0
ACAD_ZOMBIE_OBJECT
  5
1B879
102
{ACAD_REACTORS
330
1B874
102
}
330
1B874
100
AcDbZombieObject
 90
      499
 91
      592
 93
      396
310
4190985CDA58C0107406404333333333333E3BF0000000000000FB0107A41107004050150841D405064090741402480A0356
 94
        0
1001
ACAD
1000
AcDbSavedByObjectVersion
1070
     0
1000
AcadProxyRoundTripData
1071
      502
1071
   917527
1070
     0
  0
ACAD_ZOMBIE_OBJECT
  5
1B880
102
{ACAD_REACTORS
330
1B874
102
}
330
1B874
100
AcDbZombieObject
 90
      499
 91
      592
 93
      436
310
42509C9A59DA1D195B8010C409028333333333333E3BF0000000000000FB010790141107004050150841D405064090741402480A029956
 94
        0
1001
ACAD
1000
AcDbSavedByObjectVersion
1070
     0
1000
AcadProxyRoundTripData
1071
      502
1071
   917527
1070
     0
  0
ACAD_ZOMBIE_OBJECT
  5
1B884
102
{ACAD_REACTORS
330
1B874
102
}
330
1B874
100
AcDbZombieObject
 90
      499
 91
      592
 93
      460
310
4310DBDB1BDC90DA185B99D9401104090240C333333333333E3BF0000000000000FB0108901411070040501508421405064090741402480A0354
 94
        0
1001
ACAD
1000
AcDbSavedByObjectVersion
1070
     0
1000
AcadProxyRoundTripData
1071
      502
1071
   917527
1070
     0
  0
ACAD_ZOMBIE_OBJECT
  5
1B87D
102
{ACAD_REACTORS
330
1B874
102
}
330
1B874
100
AcDbZombieObject
 90
      499
 91
      592
 93
      508
310
42D0DBDB98D95C1D1D585B0010940D028333333333333E3BF0000000000000FB0107902409070040501000000000000111010841D405064090740C02480A0344
 94
        0
1001
ACAD
1000
AcDbSavedByObjectVersion
1070
     0
1000
AcadProxyRoundTripData
1071
      502
1071
   917527
1070
     0
  0
ACAD_ZOMBIE_OBJECT
  5
1B87F
102
{ACAD_REACTORS
330
1B874
102
}
330
1B874
100
AcDbZombieObject
 90
      499
 91
      592
 93
      420
310
41111A5B4010B409028333333333333E3BF0000000000000FB010790141107004050150841D405064090741402480A02677FFFFFDB
 94
        0
1001
ACAD
1000
AcDbSavedByObjectVersion
1070
     0
1000
AcadProxyRoundTripData
1071
      502
1071
   917527
1070
     0
  0
ACAD_ZOMBIE_OBJECT
  5
1B883
102
{ACAD_REACTORS
330
1B874
102
}
330
1B874
100
AcDbZombieObject
 90
      499
 91
      592
 93
      452
310
43119858D95C185D1D195C9B8010F409028333333333333E3BF0000000000000FB010790141107004050150841D405064090741402480A0350
 94
        0
1001
ACAD
1000
AcDbSavedByObjectVersion
1070
     0
1000
AcadProxyRoundTripData
1071
      502
1071
   917527
1070
     0
  0
ACAD_ZOMBIE_OBJECT
  5
1B875
102
{ACAD_REACTORS
330
1B874
102
}
330
1B874
100
AcDbZombieObject
 90
      499
 91
      592
 93
      396
310
41519B185D00240901404333333333333E3BF0000000000000F9010740A41107004050150841D405064090741402480A1B56
 94
        0
1001
ACAD
1000
AcDbSavedByObjectVersion
1070
     0
1000
AcadProxyRoundTripData
1071
      502
1071
   917527
1070
     0
  0
ACAD_ZOMBIE_OBJECT
  5
1B876
102
{ACAD_REACTORS
330
1B874
102
}
330
1B874
100
AcDbZombieObject
 90
      499
 91
      592
 93
      484
310
43919B185D15DA5D1A115919D95CC010140901404333333333333E3BF0000000000000F9010740901411070040501600405405064090741402480A1B56
 94
        0
1001
ACAD
1000
AcDbSavedByObjectVersion
1070
     0
1000
AcadProxyRoundTripData
1071
      502
1071
   917527
1070
     0
  0
ACAD_ZOMBIE_OBJECT
  5
1B877
102
{ACAD_REACTORS
330
1B874
102
}
330
1B874
100
AcDbZombieObject
 90
      499
 91
      592
 93
      420
310
4211DBDD5C985D590010240902404333333333333E3BF0000000000000F9010740A411070040501641D405064090741402480A1B50
 94
        0
1001
ACAD
1000
AcDbSavedByObjectVersion
1070
     0
1000
AcadProxyRoundTripData
1071
      502
1071
   917527
1070
     0
  0
ACAD_ZOMBIE_OBJECT
  5
1B878
102
{ACAD_REACTORS
330
1B874
102
}
330
1B874
100
AcDbZombieObject
 90
      499
 91
      592
 93
      508
310
4451DBDD5C985D5915DA5D1A115919D95CC010340902404333333333333E3BF0000000000000F9010740901411070040501600405405064090741402480A1B54
 94
        0
1001
ACAD
1000
AcDbSavedByObjectVersion
1070
     0
1000
AcadProxyRoundTripData
1071
      502
1071
   917527
1070
     0
  0
ACAD_ZOMBIE_OBJECT
  5
1B882
102
{ACAD_REACTORS
330
1B874
102
}
330
1B874
100
AcDbZombieObject
 90
      499
 91
      592
 93
      452
310
43131A5B995C185D1D195C9B8010E409028333333333333E3BF0000000000000FB010790141107004050750841D405064090741402483A0350
 94
        0
1001
ACAD
1000
AcDbSavedByObjectVersion
1070
     0
1000
AcadProxyRoundTripData
1071
      502
1071
   917527
1070
     0
  0
ACAD_ZOMBIE_OBJECT
  5
1B87E
102
{ACAD_REACTORS
330
1B874
102
}
330
1B874
100
AcDbZombieObject
 90
      499
 91
      592
 93
      428
310
429499585B1A5CDD1A58C0108409028333333333333E3BF0000000000000FB01079019070040501508421405064090741402480A1B45
 94
        0
1001
ACAD
1000
AcDbSavedByObjectVersion
1070
     0
1000
AcadProxyRoundTripData
1071
      502
1071
   917527
1070
     0
  0
ACAD_ZOMBIE_OBJECT
  5
1B881
102
{ACAD_REACTORS
330
1B874
102
}
330
1B874
100
AcDbZombieObject
 90
      499
 91
      592
 93
      420
310
42151A1A58DAD95B8010D409028333333333333E3BF0000000000000FB010790141107004050150C41D405064090741402480A0352
 94
        0
1001
ACAD
1000
AcDbSavedByObjectVersion
1070
     0
1000
AcadProxyRoundTripData
1071
      502
1071
   917527
1070
     0
  0
DICTIONARY
  5
1B984
102
{ACAD_REACTORS
330
1B979
102
}
330
1B979
100
AcDbDictionary
1001
ACAD
1000
TREAT_AS_HARD
1070
     0
  0
XRECORD
  5
1B99D
102
{ACAD_REACTORS
330
1B979
102
}
330
1B979
100
AcDbXrecord
 90
-1023410169
  0
DICTIONARY
  5
1C9D7
330
1B872
100
AcDbDictionary
  3
ACAD_XREC_ROUNDTRIP
350
1C9D8
1001
ACAD
1000
TREAT_AS_HARD
1070
     1
  0
DICTIONARY
  5
1C9D5
330
1B871
100
AcDbDictionary
  3
ACAD_XREC_ROUNDTRIP
350
1C9D6
1001
ACAD
1000
TREAT_AS_HARD
1070
     1
  0
DICTIONARY
  5
1C9D9
330
1B873
100
AcDbDictionary
  3
ACAD_XREC_ROUNDTRIP
350
1C9DA
1001
ACAD
1000
TREAT_AS_HARD
1070
     1
  0
DICTIONARY
  5
1C9DD
330
1B891
100
AcDbDictionary
  3
ACAD_XREC_ROUNDTRIP
350
1C9DE
1001
ACAD
1000
TREAT_AS_HARD
1070
     1
  0
XRECORD
  5
1C9D8
102
{ACAD_REACTORS
330
1C9D7
102
}
330
1C9D7
100
AcDbXrecord
102
MATERIAL
148
0.0
149
0.0
149
0.0
 93
        0
 94
       63
282
     0
 72
     1
 77
     1
171
     1
175
     1
179
     1
273
     0
  0
XRECORD
  5
1C9D6
102
{ACAD_REACTORS
330
1C9D5
102
}
330
1C9D5
100
AcDbXrecord
102
MATERIAL
148
0.0
149
0.0
149
0.0
 93
        0
 94
       63
282
     0
 72
     1
 77
     1
171
     1
175
     1
179
     1
273
     0
  0
XRECORD
  5
1C9DA
102
{ACAD_REACTORS
330
1C9D9
102
}
330
1C9D9
100
AcDbXrecord
102
MATERIAL
148
0.0
149
0.0
149
0.0
 93
        0
 94
       63
282
     0
 72
     1
 77
     1
171
     1
175
     1
179
     1
273
     0
  0
XRECORD
  5
1C9DE
102
{ACAD_REACTORS
330
1C9DD
102
}
330
1C9DD
100
AcDbXrecord
102
ACAD_ROUNDTRIP_PRE2007_TABLESTYLE
 90
      512
 91
        0
  1

 92
      512
 93
        0
  2

 94
      512
 95
        0
  3

  0
ENDSEC
  0
EOF
