  0
SECTION
  2
HEADER
  9
$ACADVER
  1
AC1012
  9
$DWGCODEPAGE
  3
dos932
  9
$INSBASE
 10
0.0
 20
0.0
 30
0.0
  9
$EXTMIN
 10
4228.699146888245
 20
-50.15783595326207
 30
0.0
  9
$EXTMAX
 10
5026.899146888245
 20
520.3421640467383
 30
0.0
  9
$LIMMIN
 10
4209.399146888245
 20
-66.45783595326202
  9
$LIMMAX
 10
5050.399146888246
 20
527.542164046738
  9
$ORTHOMODE
 70
     0
  9
$REGENMODE
 70
     1
  9
$FILLMODE
 70
     1
  9
$QTEXTMODE
 70
     0
  9
$MIRRTEXT
 70
     1
  9
$DRAGMODE
 70
     2
  9
$LTSCALE
 40
2.0
  9
$OSMODE
 70
  3071
  9
$ATTMODE
 70
     1
  9
$TEXTSIZE
 40
2.5
  9
$TRACEWID
 40
1.0
  9
$TEXTSTYLE
  7
SIMPLEXT
  9
$CLAYER
  8
AM_0
  9
$CELTYPE
  6
BYLAYER
  9
$CECOLOR
 62
   256
  9
$CELTSCALE
 40
1.0
  9
$DELOBJ
 70
     1
  9
$DISPSILH
 70
     0
  9
$DIMSCALE
 40
2.0
  9
$DIMASZ
 40
1.0
  9
$DIMEXO
 40
1.0
  9
$DIMDLI
 40
7.0
  9
$DIMRND
 40
0.0
  9
$DIMDLE
 40
0.0
  9
$DIMEXE
 40
1.0
  9
$DIMTP
 40
0.1
  9
$DIMTM
 40
0.1
  9
$DIMTXT
 40
3.0
  9
$DIMCEN
 40
0.0
  9
$DIMTSZ
 40
0.0
  9
$DIMTOL
 70
     0
  9
$DIMLIM
 70
     0
  9
$DIMTIH
 70
     0
  9
$DIMTOH
 70
     0
  9
$DIMSE1
 70
     0
  9
$DIMSE2
 70
     0
  9
$DIMTAD
 70
     1
  9
$DIMZIN
 70
     8
  9
$DIMBLK
  1

  9
$DIMASO
 70
     1
  9
$DIMSHO
 70
     1
  9
$DIMPOST
  1

  9
$DIMAPOST
  1
"
  9
$DIMALT
 70
     0
  9
$DIMALTD
 70
     2
  9
$DIMALTF
 40
0.0393701
  9
$DIMLFAC
 40
1.0
  9
$DIMTOFL
 70
     1
  9
$DIMTVP
 40
0.0
  9
$DIMTIX
 70
     1
  9
$DIMSOXD
 70
     0
  9
$DIMSAH
 70
     0
  9
$DIMBLK1
  1

  9
$DIMBLK2
  1

  9
$DIMSTYLE
  2
DTOS-2
  9
$DIMCLRD
 70
   256
  9
$DIMCLRE
 70
   256
  9
$DIMCLRT
 70
   256
  9
$DIMTFAC
 40
0.71
  9
$DIMGAP
 40
1.0
  9
$DIMJUST
 70
     0
  9
$DIMSD1
 70
     0
  9
$DIMSD2
 70
     0
  9
$DIMTOLJ
 70
     1
  9
$DIMTZIN
 70
     8
  9
$DIMALTZ
 70
     8
  9
$DIMALTTZ
 70
     8
  9
$DIMFIT
 70
     5
  9
$DIMUPT
 70
     0
  9
$DIMUNIT
 70
     2
  9
$DIMDEC
 70
     4
  9
$DIMTDEC
 70
     4
  9
$DIMALTU
 70
     2
  9
$DIMALTTD
 70
     2
  9
$DIMTXSTY
  7
STANDARD
  9
$DIMAUNIT
 70
     0
  9
$LUNITS
 70
     2
  9
$LUPREC
 70
     4
  9
$SKETCHINC
 40
1.0
  9
$FILLETRAD
 40
0.0
  9
$AUNITS
 70
     0
  9
$AUPREC
 70
     0
  9
$MENU
  1
.
  9
$ELEVATION
 40
0.0
  9
$PELEVATION
 40
0.0
  9
$THICKNESS
 40
0.0
  9
$LIMCHECK
 70
     0
  9
$BLIPMODE
 70
     0
  9
$CHAMFERA
 40
20.0
  9
$CHAMFERB
 40
20.0
  9
$CHAMFERC
 40
0.0
  9
$CHAMFERD
 40
0.0
  9
$SKPOLY
 70
     0
  9
$TDCREATE
 40
2454489.086194294
  9
$TDUPDATE
 40
2460361.735614977
  9
$TDINDWG
 40
0.8649543981
  9
$TDUSRTIMER
 40
0.8645675694
  9
$USRTIMER
 70
     1
  9
$ANGBASE
 50
0.0
  9
$ANGDIR
 70
     0
  9
$PDMODE
 70
     0
  9
$PDSIZE
 40
0.0
  9
$PLINEWID
 40
0.0
  9
$COORDS
 70
     1
  9
$SPLFRAME
 70
     0
  9
$SPLINETYPE
 70
     6
  9
$SPLINESEGS
 70
     8
  9
$ATTDIA
 70
     1
  9
$ATTREQ
 70
     1
  9
$HANDLING
 70
     1
  9
$HANDSEED
  5
1CBAA
  9
$SURFTAB1
 70
     6
  9
$SURFTAB2
 70
     6
  9
$SURFTYPE
 70
     6
  9
$SURFU
 70
     6
  9
$SURFV
 70
     6
  9
$UCSNAME
  2

  9
$UCSORG
 10
0.0
 20
0.0
 30
0.0
  9
$UCSXDIR
 10
1.0
 20
0.0
 30
0.0
  9
$UCSYDIR
 10
0.0
 20
1.0
 30
0.0
  9
$PUCSNAME
  2

  9
$PUCSORG
 10
0.0
 20
0.0
 30
0.0
  9
$PUCSXDIR
 10
1.0
 20
0.0
 30
0.0
  9
$PUCSYDIR
 10
0.0
 20
1.0
 30
0.0
  9
$USERI1
 70
     0
  9
$USERI2
 70
     0
  9
$USERI3
 70
     0
  9
$USERI4
 70
     0
  9
$USERI5
 70
     0
  9
$USERR1
 40
0.0
  9
$USERR2
 40
0.0
  9
$USERR3
 40
0.0
  9
$USERR4
 40
0.0
  9
$USERR5
 40
0.0
  9
$WORLDVIEW
 70
     0
  9
$SHADEDGE
 70
     3
  9
$SHADEDIF
 70
    70
  9
$TILEMODE
 70
     1
  9
$MAXACTVP
 70
    48
  9
$PINSBASE
 10
0.0
 20
0.0
 30
0.0
  9
$PLIMCHECK
 70
     0
  9
$PEXTMIN
 10
-81.24937706734659
 20
-12.61109972763063
 30
0.0
  9
$PEXTMAX
 10
347.9493587567997
 20
215.8110938148499
 30
0.0
  9
$PLIMMIN
 10
0.0
 20
0.0
  9
$PLIMMAX
 10
420.0
 20
297.0
  9
$UNITMODE
 70
     0
  9
$VISRETAIN
 70
     1
  9
$PLINEGEN
 70
     0
  9
$PSLTSCALE
 70
     1
  9
$TREEDEPTH
 70
  3020
  9
$PICKSTYLE
 70
     1
  9
$CMLSTYLE
  2
STANDARD
  9
$CMLJUST
 70
     0
  9
$CMLSCALE
 40
1.0
  9
$SAVEIMAGES
 70
     1
  0
ENDSEC
  0
SECTION
  2
CLASSES
  0
CLASS
  1
ACDBDICTIONARYWDFLT
  2
AcDbDictionaryWithDefault
  3
AutoCAD 2000
 90
    32768
280
     0
281
     0
  0
CLASS
  1
MATERIAL
  2
AcDbMaterial
  3
ObjectDBX Classes
 90
    33921
280
     0
281
     0
  0
CLASS
  1
VISUALSTYLE
  2
AcDbVisualStyle
  3
ObjectDBX Classes
 90
    36863
280
     0
281
     0
  0
CLASS
  1
TABLESTYLE
  2
AcDbTableStyle
  3
ObjectDBX Classes
 90
    36863
280
     0
281
     0
  0
CLASS
  1
ACME_DOCUMENT
  2
AcMeDbDoc
  3
AcMeServices
 90
    32768
280
     0
281
     0
  0
CLASS
  1
AMGSETTINGSOBJ
  2
AmgSettingsObj
  3
"AcadM|Product Description: AutoCAD Mechanical|Company: Autodesk"
 90
    32768
280
     0
281
     0
  0
CLASS
  1
ACMESCOPE
  2
AcMeScope
  3
AcMeServices
 90
    32768
280
     0
281
     0
  0
CLASS
  1
ACMECOMMANDHISTORY
  2
AcMeCommandHistory
  3
AcMeServices
 90
    32768
280
     0
281
     0
  0
CLASS
  1
ACIMSYSVARMAN
  2
AcImSysVarManager
  3
AcMeServices
 90
    32768
280
     0
281
     0
  0
CLASS
  1
ACIMINTSYSVAR
  2
AcImIntSysVar
  3
AcMeServices
 90
    32768
280
     0
281
     0
  0
CLASS
  1
ACMEDRAWINGMAN
  2
AcMeDrawingMan
  3
AcMeServices
 90
    32768
280
     0
281
     0
  0
CLASS
  1
ACMEVIEW
  2
AcMeView
  3
AcMeServices
 90
    32768
280
     0
281
     0
  0
CLASS
  1
ACDBENTITYCACHE
  2
AcMeEntityCache
  3
AcMeServices
 90
    32768
280
     0
281
     0
  0
CLASS
  1
GSMANAGER
  2
AcMeGSManager
  3
AcMeServices
 90
    32768
280
     0
281
     0
  0
CLASS
  1
AMDTINTERNALREACTOR
  2
AmdtInternalReactor
  3
AcMeServices
 90
    32768
280
     0
281
     0
  0
CLASS
  1
ACMESTATEMGR
  2
AcMeStateMgr
  3
AcMeServices
 90
    32768
280
     0
281
     0
  0
CLASS
  1
ACGREFMASTER
  2
AcGrefMaster
  3
AcAttribServices
 90
    32768
280
     0
281
     0
  0
CLASS
  1
AM_DRAWING_MGR
  2
AcDmDwgMgr
  3
AcMechDwgViewMgmt
 90
    32768
280
     0
281
     0
  0
CLASS
  1
AM_DWG_DOCUMENT
  2
AcDmDwgDocument
  3
AcMechDwgViewMgmt
 90
    32768
280
     0
281
     0
  0
CLASS
  1
AM_DWG_SHEET
  2
AcDmSheet
  3
AcMechDwgViewMgmt
 90
    32768
280
     0
281
     0
  0
CLASS
  1
AM_VIEWDIMPARMAP
  2
AcDmViewDimParMap
  3
AcMechDwgViewMgmt
 90
    32768
280
     0
281
     0
  0
CLASS
  1
ACIMREALSYSVAR
  2
AcImRealSysVar
  3
AcMeServices
 90
    32768
280
     0
281
     0
  0
CLASS
  1
AM_DWGMGR_NAME
  2
AcDmDwgMgrName
  3
AcMechDwgViewMgmt
 90
    32768
280
     0
281
     0
  0
CLASS
  1
ACME_DATABASE
  2
AcMeDbDatabase
  3
AcMeServices
 90
    32768
280
     0
281
     0
  0
CLASS
  1
ACRFINSADJUSTERMGR
  2
AcRfInsAdjusterMgr
  3
AcMeServices
 90
    32768
280
     0
281
     0
  0
CLASS
  1
ACGREFACADMASTER
  2
AcGrefacadMaster
  3
AcGrefServices
 90
    32768
280
     0
281
     0
  0
CLASS
  1
AMDTMENUSTATEMGR
  2
AmdtMenuStateMgr
  3
McadcomServices
 90
    32768
280
     0
281
     0
  0
CLASS
  1
AMDTMCOMMENUSTATE
  2
AmdtMcomMenuState
  3
McadcomServices
 90
    32768
280
     0
281
     0
  0
CLASS
  1
AMIMASTER
  2
AmiMaster
  3
AmiServices
 90
    32768
280
     0
281
     0
  0
CLASS
  1
MAPIAMMOUDLE
  2
MApiAmModule
  3
MApiAmServices
 90
    32768
280
     0
281
     0
  0
CLASS
  1
ACIMSTRSYSVAR
  2
AcImStrSysVar
  3
AcMeServices
 90
    32768
280
     0
281
     0
  0
CLASS
  1
AMDTADMENUSTATE
  2
AmdtAdMenuState
  3
DesignerServices
 90
    32768
280
     0
281
     0
  0
CLASS
  1
ADAPPL
  2
AcAdAppl
  3
DesignerServices
 90
    32768
280
     0
281
     0
  0
CLASS
  1
DEPMGR
  2
AcAdDepMgr
  3
DesignerServices
 90
    32768
280
     0
281
     0
  0
CLASS
  1
PARAMMGR
  2
AcAdParamMgr
  3
DesignerServices
 90
    32768
280
     0
281
     0
  0
CLASS
  1
PARAMSCOPE
  2
AcAdParamScope
  3
DesignerServices
 90
    32768
280
     0
281
     0
  0
CLASS
  1
NAMEDAPPL
  2
AcAdNamedAppl
  3
DesignerServices
 90
    32768
280
     0
281
     0
  0
CLASS
  1
AMDTDMMENUSTATE
  2
AmdtDmMenuState
  3
AcMechDwgViewMgmt
 90
    32768
280
     0
281
     0
  0
CLASS
  1
AMDTAMMENUSTATE
  2
AmdtAmMenuState
  3
DesignerAssemblies
 90
    32768
280
     0
281
     0
  0
CLASS
  1
ACAMPROJECT
  2
AcAmProject
  3
DesignerAssemblies
 90
    32768
280
     0
281
     0
  0
CLASS
  1
ACAMGRCOMPDEF
  2
AcAmGrCompDef
  3
DesignerAssemblies
 90
    32768
280
     0
281
     0
  0
CLASS
  1
ACCMCONTEXT
  2
AcCmContext
  3
DesignerAssemblies
 90
    32768
280
     0
281
     0
  0
CLASS
  1
ACAMCOMPDEF
  2
AcAmCompDef
  3
DesignerAssemblies
 90
    32768
280
     0
281
     0
  0
CLASS
  1
ACAMCOMPDEFMGR
  2
AcAmCompDefMgr
  3
DesignerAssemblies
 90
    32768
280
     0
281
     0
  0
CLASS
  1
AMCONTEXTMGR
  2
AcAmContextMgr
  3
DesignerAssemblies
 90
    32768
280
     0
281
     0
  0
CLASS
  1
ACAMCONTEXTMODELER
  2
AcAmContextModeler
  3
DesignerAssemblies
 90
    32768
280
     0
281
     0
  0
CLASS
  1
ACMDATADICTIONARY
  2
AcmDataDictionary
  3
"AcmSymBB|Product Description: AutoCAD Mechanical|Company: Autodesk"
 90
    32768
280
     0
281
     0
  0
CLASS
  1
CATALOGSTATE
  2
AcAmCatalogState
  3
DesignerAssemblies
 90
    32768
280
     0
281
     0
  0
CLASS
  1
ACAMGRCOMPDEFSET
  2
AcAmGrCompDefSet
  3
DesignerAssemblies
 90
    32768
280
     0
281
     0
  0
CLASS
  1
AMDTBROWSERDBTAB
  2
AmdtBrowserDbTab
  3
McadcomServices
 90
    32768
280
     0
281
     0
  0
CLASS
  1
CBROWSERAPPOBJECT
  2
CBrowserAppObject
  3
McadcomServices
 90
    32768
280
     0
281
     0
  0
CLASS
  1
DM_PLACEHOLDER
  2
AcDmSelsetPlaceholder
  3
AcMechDwgViewMgmt
 90
    32768
280
     0
281
     0
  0
CLASS
  1
ACMSTANDARDANSI
  2
AcmStandardANSI
  3
"Amdt_StdImp|Product Description: AutoCAD Mechanical|Company: Autodesk"
 90
    32768
280
     0
281
     0
  0
CLASS
  1
AMGOBJPROPCFG
  2
AmgObjPropCfg
  3
"AmgLay|Product Description: AutoCAD Mechanical|Company: Autodesk"
 90
    32769
280
     0
281
     0
  0
CLASS
  1
ACMSURFSTANDARDANSI
  2
AcmSurfTextStdANSI
  3
"Amdt_StdImp|Product Description: AutoCAD Mechanical|Company: Autodesk"
 90
    32768
280
     0
281
     0
  0
CLASS
  1
ACMFCFSTANDARDANSI
  2
AcmFCFStdANSI
  3
"Amdt_StdImp|Product Description: AutoCAD Mechanical|Company: Autodesk"
 90
    32768
280
     0
281
     0
  0
CLASS
  1
ACMWELDSTANDARDANSI
  2
AcmWeldingStdANSI
  3
"Amdt_StdImp|Product Description: AutoCAD Mechanical|Company: Autodesk"
 90
    32768
280
     0
281
     0
  0
CLASS
  1
ACMIDSTANDARDANSI
  2
AcmIdStdANSI
  3
"Amdt_StdImp|Product Description: AutoCAD Mechanical|Company: Autodesk"
 90
    32768
280
     0
281
     0
  0
CLASS
  1
ACMDATUMSTANDARDANSI
  2
AcmDatumStdANSI
  3
"Amdt_StdImp|Product Description: AutoCAD Mechanical|Company: Autodesk"
 90
    32768
280
     0
281
     0
  0
CLASS
  1
ACMBOMSTANDARDANSI
  2
AcmBOMStdANSI
  3
"Amdt_StdImp|Product Description: AutoCAD Mechanical|Company: Autodesk"
 90
    32768
280
     0
281
     0
  0
CLASS
  1
ACMDETAILSTANDARDANSI
  2
AmdtDetailSymStdANSI
  3
"Amdt_StdImp|Product Description: AutoCAD Mechanical|Company: Autodesk"
 90
    32768
280
     0
281
     0
  0
CLASS
  1
ACMSECTIONSTANDARDANSI
  2
AmdtSectionSymStdANSI
  3
"Amdt_StdImp|Product Description: AutoCAD Mechanical|Company: Autodesk"
 90
    32768
280
     0
281
     0
  0
CLASS
  1
ACMCENTERLINESTANDARDANSI
  2
AmdtCenterLineStdANSI
  3
"Amdt_StdImp|Product Description: AutoCAD Mechanical|Company: Autodesk"
 90
    32768
280
     0
281
     0
  0
CLASS
  1
ACMTHREADLINESTANDARDANSI
  2
AmdtThreadLineStdANSI
  3
"Amdt_StdImp|Product Description: AutoCAD Mechanical|Company: Autodesk"
 90
    32768
280
     0
281
     0
  0
CLASS
  1
ACMNOTESTANDARDANSI
  2
AmdtNoteStdANSI
  3
"Amdt_StdImp|Product Description: AutoCAD Mechanical|Company: Autodesk"
 90
    32768
280
     0
281
     0
  0
CLASS
  1
ACMTAPERSTANDARDANSI
  2
AcmTaperStdANSI
  3
"Amdt_StdImp|Product Description: AutoCAD Mechanical|Company: Autodesk"
 90
    32768
280
     0
281
     0
  0
CLASS
  1
AMDTNOTETEMPLATEDB
  2
AmdtNoteTemplateDB
  3
AMDT_STDIMP_MODULE_NAME
 90
    32768
280
     0
281
     0
  0
CLASS
  1
ACAMGLAYSTD
  2
AcAmgLayStd
  3
"AmgLay|Product Description: AutoCAD Mechanical|Company: Autodesk"
 90
    32768
280
     0
281
     0
  0
CLASS
  1
ACAMGDIMSTD
  2
AcAmgDimStd
  3
"AmgDim|Product Description: AutoCAD Mechanical|Company: Autodesk"
 90
    32768
280
     0
281
     0
  0
CLASS
  1
ACAMGHOLECHARTSTDANSI
  2
AcAmgHoleChartStdANSI
  3
ACMSYMBB_MODULE_NAME
 90
    32768
280
     0
281
     0
  0
CLASS
  1
ACAMGTITLESTD
  2
AcAmgTitleStd
  3
"AmgTitle|Product Description: AutoCAD Mechanical|Company: Autodesk"
 90
    32768
280
     0
281
     0
  0
CLASS
  1
ACAMGFILTERDAT
  2
AcAmgFilterDat
  3
"AcadM|Product Description: AutoCAD Mechanical|Company: Autodesk"
 90
    32768
280
     0
281
     0
  0
CLASS
  1
SORTENTSTABLE
  2
AcDbSortentsTable
  3
AutoCAD 2000
 90
    32768
280
     0
281
     0
  0
CLASS
  1
ACMSTANDARDISO
  2
AcmStandardISO
  3
"Amdt_StdImp|Product Description: AutoCAD Mechanical|Company: Autodesk"
 90
    32768
280
     0
281
     0
  0
CLASS
  1
AMDTEDGESTANDARDISO13715
  2
AmdtEdgeStdISO13715
  3
"Amdt_StdImp|Product Description: AutoCAD Mechanical|Company: Autodesk"
 90
    32768
280
     0
281
     0
  0
CLASS
  1
ACMSURFSTANDARDISO
  2
AcmSurfTextStdISO
  3
"Amdt_StdImp|Product Description: AutoCAD Mechanical|Company: Autodesk"
 90
    32768
280
     0
281
     0
  0
CLASS
  1
ACMFCFSTANDARDISO
  2
AcmFCFStdISO
  3
"Amdt_StdImp|Product Description: AutoCAD Mechanical|Company: Autodesk"
 90
    32768
280
     0
281
     0
  0
CLASS
  1
ACMWELDSTANDARDISO
  2
AcmWeldingStdISO
  3
"Amdt_StdImp|Product Description: AutoCAD Mechanical|Company: Autodesk"
 90
    32768
280
     0
281
     0
  0
CLASS
  1
ACMIDSTANDARDISO
  2
AcmIdStdISO
  3
"Amdt_StdImp|Product Description: AutoCAD Mechanical|Company: Autodesk"
 90
    32768
280
     0
281
     0
  0
CLASS
  1
ACMDATUMSTANDARDISO
  2
AcmDatumStdISO
  3
"Amdt_StdImp|Product Description: AutoCAD Mechanical|Company: Autodesk"
 90
    32768
280
     0
281
     0
  0
CLASS
  1
ACMBOMSTANDARDISO
  2
AcmBOMStdISO
  3
"Amdt_StdImp|Product Description: AutoCAD Mechanical|Company: Autodesk"
 90
    32768
280
     0
281
     0
  0
CLASS
  1
ACMDETAILSTANDARDISO
  2
AmdtDetailSymStdISO
  3
"Amdt_StdImp|Product Description: AutoCAD Mechanical|Company: Autodesk"
 90
    32768
280
     0
281
     0
  0
CLASS
  1
ACMSECTIONSTANDARDISO
  2
AmdtSectionSymStdISO
  3
"Amdt_StdImp|Product Description: AutoCAD Mechanical|Company: Autodesk"
 90
    32768
280
     0
281
     0
  0
CLASS
  1
ACMCENTERLINESTANDARDISO
  2
AmdtCenterLineStdISO
  3
"Amdt_StdImp|Product Description: AutoCAD Mechanical|Company: Autodesk"
 90
    32768
280
     0
281
     0
  0
CLASS
  1
ACMTHREADLINESTANDARDISO
  2
AmdtThreadLineStdISO
  3
"Amdt_StdImp|Product Description: AutoCAD Mechanical|Company: Autodesk"
 90
    32768
280
     0
281
     0
  0
CLASS
  1
ACMNOTESTANDARDISO
  2
AmdtNoteStdISO
  3
"Amdt_StdImp|Product Description: AutoCAD Mechanical|Company: Autodesk"
 90
    32768
280
     0
281
     0
  0
CLASS
  1
ACMTAPERSTANDARDISO
  2
AcmTaperStdISO
  3
"Amdt_StdImp|Product Description: AutoCAD Mechanical|Company: Autodesk"
 90
    32768
280
     0
281
     0
  0
CLASS
  1
ACAMGHOLECHARTSTDISO
  2
AcAmgHoleChartStdISO
  3
ACMSYMBB_MODULE_NAME
 90
    32768
280
     0
281
     0
  0
CLASS
  1
DICTIONARYVAR
  2
AcDbDictionaryVar
  3
AutoCAD 2000
 90
    32768
280
     0
281
     0
  0
CLASS
  1
ACDBPLACEHOLDER
  2
AcDbPlaceHolder
  3
AutoCAD 2000
 90
    32768
280
     0
281
     0
  0
CLASS
  1
LAYOUT
  2
AcDbLayout
  3
AutoCAD 2000
 90
    32768
280
     0
281
     0
  0
CLASS
  1
PLOTSETTINGS
  2
AcDbPlotSettings
  3
AutoCAD 2000
 90
    32768
280
     0
281
     0
  0
CLASS
  1
DIMASSOC
  2
AcDbDimAssoc
  3
"AcDbDimAssoc|Product Desc:     AcDim ARX App For Dimension|Company:          Autodesk, Inc.|WEB Address:      www.autodesk.com"
 90
    32768
280
     0
281
     0
  0
CLASS
  1
ACAD_PROXY_OBJECT_WRAPPER
  2
AcDbProxyObjectWrapper
  3
AutoCAD 2000
 90
    32768
280
     0
281
     0
  0
CLASS
  1
LONG_TRANSACTION
  2
AcDbLongTransaction
  3
AutoCAD 2000
 90
    32768
280
     0
281
     0
  0
CLASS
  1
LWPOLYLINE
  2
AcDbPolyline
  3
AutoCAD 2000
 90
    32768
280
     0
281
     1
  0
CLASS
  1
HATCH
  2
AcDbHatch
  3
AutoCAD 2000
 90
    32768
280
     0
281
     1
  0
CLASS
  1
XRECORD
  2
AcDbXrecord
  3
AutoCAD 2000
 90
    32768
280
     0
281
     0
  0
ENDSEC
  0
SECTION
  2
TABLES
  0
TABLE
  2
VPORT
  5
1B868
102
{ACAD_XDICTIONARY
360
1BB85
102
}
330
0
100
AcDbSymbolTable
 70
     2
  0
VPORT
  5
1CBA6
330
1B868
100
AcDbSymbolTableRecord
100
AcDbViewportTableRecord
  2
*ACTIVE
 70
     0
 10
0.0
 20
0.0
 11
1.0
 21
1.0
 12
4651.212209585105
 22
230.9593404248494
 13
0.0
 23
0.0
 14
5.0
 24
5.0
 15
20.0
 25
20.0
 16
0.0
 26
0.0
 36
1.0
 17
0.0
 27
0.0
 37
0.0
 40
600.2025125936461
 41
2.520694259012016
 42
50.0
 43
0.0
 44
0.0
 50
0.0
 51
0.0
 71
    16
 72
   100
 73
     1
 74
     1
 75
     0
 76
     0
 77
     0
 78
     0
  0
ENDTAB
  0
TABLE
  2
LTYPE
  5
1B865
330
0
100
AcDbSymbolTable
 70
    25
  0
LTYPE
  5
1B888
330
1B865
100
AcDbSymbolTableRecord
100
AcDbLinetypeTableRecord
  2
BYBLOCK
 70
     0
  3

 72
    65
 73
     0
 40
0.0
  0
LTYPE
  5
1B889
330
1B865
100
AcDbSymbolTableRecord
100
AcDbLinetypeTableRecord
  2
BYLAYER
 70
     0
  3

 72
    65
 73
     0
 40
0.0
  0
LTYPE
  5
1B88A
330
1B865
100
AcDbSymbolTableRecord
100
AcDbLinetypeTableRecord
  2
CONTINUOUS
 70
     0
  3
Solid line
 72
    65
 73
     0
 40
0.0
  0
LTYPE
  5
1B8A2
330
1B865
100
AcDbSymbolTableRecord
100
AcDbLinetypeTableRecord
  2
AM_ISO02W050
 70
     0
  3
__ __ __ __ __ __ __ __ __ __ __ __ __ __ __
 72
    65
 73
     2
 40
7.5
 49
6.0
 74
     0
 49
-1.5
 74
     0
  0
LTYPE
  5
1B8A3
330
1B865
100
AcDbSymbolTableRecord
100
AcDbLinetypeTableRecord
  2
AMZIGZAG
 70
     0
  3
/\/-/\/-/\/-/\/-/\/-/\/
 72
    65
 73
     2
 40
11.00009999999999
 49
0.0001
 74
     0
 49
-11.0
 74
     0
  0
LTYPE
  5
1B8A4
330
1B865
100
AcDbSymbolTableRecord
100
AcDbLinetypeTableRecord
  2
ACJISTGB
 70
     0
  3
__ . . __ . .
 72
    65
 73
     6
 40
9.0
 49
4.0
 74
     0
 49
-1.0
 74
     0
 49
1.0
 74
     0
 49
-1.0
 74
     0
 49
1.0
 74
     0
 49
-1.0
 74
     0
  0
LTYPE
  5
1B8A5
330
1B865
100
AcDbSymbolTableRecord
100
AcDbLinetypeTableRecord
  2
ACJISTGL
 70
     0
  3
_ _ _ _ _
 72
    65
 73
     2
 40
3.0
 49
2.0
 74
     0
 49
-1.0
 74
     0
  0
LTYPE
  5
1B8A6
330
1B865
100
AcDbSymbolTableRecord
100
AcDbLinetypeTableRecord
  2
DASHED1
 70
     0
  3
--  --  --  --  --  --  --  --  
 72
    65
 73
     2
 40
2.5
 49
1.25
 74
     0
 49
-1.25
 74
     0
  0
LTYPE
  5
1B8A7
330
1B865
100
AcDbSymbolTableRecord
100
AcDbLinetypeTableRecord
  2
ACJISWELD
 70
     0
  3
_ _ _ _ _
 72
    65
 73
     2
 40
3.0
 49
2.0
 74
     0
 49
-1.0
 74
     0
  0
LTYPE
  5
1B8A8
330
1B865
100
AcDbSymbolTableRecord
100
AcDbLinetypeTableRecord
  2
AM_ISO08W050
 70
     0
  3
____ . ____ . ____ . ____ . ____ . ____ . ____
 72
    65
 73
     4
 40
18.0
 49
12.0
 74
     0
 49
-1.5
 74
     0
 49
3.0
 74
     0
 49
-1.5
 74
     0
  0
LTYPE
  5
1B8A9
330
1B865
100
AcDbSymbolTableRecord
100
AcDbLinetypeTableRecord
  2
AM_ISO09W050
 70
     0
  3
_____ . . _____ . . _____ . . ____ .. ____
 72
    65
 73
     6
 40
22.5
 49
12.0
 74
     0
 49
-1.5
 74
     0
 49
3.0
 74
     0
 49
-1.5
 74
     0
 49
3.0
 74
     0
 49
-1.5
 74
     0
  0
LTYPE
  5
1B8AA
330
1B865
100
AcDbSymbolTableRecord
100
AcDbLinetypeTableRecord
  2
AMCONSTR
 70
     0
  3
_______________________
 72
    65
 73
     2
 40
9999.0
 49
9999.0
 74
     0
 49
0.0
 74
     0
  0
LTYPE
  5
1B8AB
330
1B865
100
AcDbSymbolTableRecord
100
AcDbLinetypeTableRecord
  2
AM_ISO08W050X2
 70
     0
  3
__ . __ . __ . __ . __ . __
 72
    65
 73
     4
 40
9.0
 49
6.0
 74
     0
 49
-0.75
 74
     0
 49
1.5
 74
     0
 49
-0.75
 74
     0
  0
LTYPE
  5
1B8AC
330
1B865
100
AcDbSymbolTableRecord
100
AcDbLinetypeTableRecord
  2
AM_ISO02W050X2
 70
     0
  3
 _ _ _ _ _ _ _ _ _ _ _ _
 72
    65
 73
     2
 40
3.75
 49
3.0
 74
     0
 49
-0.75
 74
     0
  0
LTYPE
  5
1B8AD
330
1B865
100
AcDbSymbolTableRecord
100
AcDbLinetypeTableRecord
  2
DD1
 70
     0
  3
一点鎖線
 72
    65
 73
     4
 40
11.1
 49
7.5
 74
     0
 49
-1.199999999999999
 74
     0
 49
1.199999999999999
 74
     0
 49
-1.199999999999999
 74
     0
  0
LTYPE
  5
1B951
330
1B865
100
AcDbSymbolTableRecord
100
AcDbLinetypeTableRecord
  2
HIDDEN
 70
     0
  3
Hidden __ __ __ __ __ __ __ __ __ __ __ __ __ _
 72
    65
 73
     2
 40
0.375
 49
0.25
 74
     0
 49
-0.125
 74
     0
  0
LTYPE
  5
1B952
330
1B865
100
AcDbSymbolTableRecord
100
AcDbLinetypeTableRecord
  2
PHANTOM2
 70
     0
  3
Phantom (.5x) ___ _ _ ___ _ _ ___ _ _ ___ _ _
 72
    65
 73
     6
 40
1.25
 49
0.625
 74
     0
 49
-0.125
 74
     0
 49
0.125
 74
     0
 49
-0.125
 74
     0
 49
0.125
 74
     0
 49
-0.125
 74
     0
  0
LTYPE
  5
1B953
330
1B865
100
AcDbSymbolTableRecord
100
AcDbLinetypeTableRecord
  2
CENTER
 70
     0
  3
Center ____ _ ____ _ ____ _ ____ _ ____ _ ____
 72
    65
 73
     4
 40
2.0
 49
1.25
 74
     0
 49
-0.25
 74
     0
 49
0.25
 74
     0
 49
-0.25
 74
     0
  0
LTYPE
  5
1B987
330
1B865
100
AcDbSymbolTableRecord
100
AcDbLinetypeTableRecord
  2
CENTER2
 70
     0
  3
Center (.5x) ___ _ ___ _ ___ _ ___ _ ___ _ ___
 72
    65
 73
     4
 40
1.125
 49
0.75
 74
     0
 49
-0.125
 74
     0
 49
0.125
 74
     0
 49
-0.125
 74
     0
  0
LTYPE
  5
1B988
330
1B865
100
AcDbSymbolTableRecord
100
AcDbLinetypeTableRecord
  2
HIDDEN2
 70
     0
  3
Hidden (.5x) _ _ _ _ _ _ _ _ _ _ _ _ _ _ _ _ _
 72
    65
 73
     2
 40
0.1875
 49
0.125
 74
     0
 49
-0.0625
 74
     0
  0
LTYPE
  5
1B98B
330
1B865
100
AcDbSymbolTableRecord
100
AcDbLinetypeTableRecord
  2
AMZIGZAG2
 70
     0
  3
/\/-/\/-/\/-/\/-/\/-/\/
 72
    65
 73
     2
 40
0.4401
 49
0.0001
 74
     4
 75
   136
340
1B98A
 46
0.0016
 50
0.0
 44
0.0
 45
0.0
 49
-0.4400000000000001
 74
     0
  0
LTYPE
  5
1B99A
330
1B865
100
AcDbSymbolTableRecord
100
AcDbLinetypeTableRecord
  2
ACANSTGB
 70
     0
  3
__ . . __ . .
 72
    65
 73
     6
 40
0.35433070866
 49
0.15748031496
 74
     0
 49
-0.03937007874
 74
     0
 49
0.03937007874
 74
     0
 49
-0.03937007874
 74
     0
 49
0.03937007874
 74
     0
 49
-0.03937007874
 74
     0
  0
LTYPE
  5
1B99B
330
1B865
100
AcDbSymbolTableRecord
100
AcDbLinetypeTableRecord
  2
ACANSTGL
 70
     0
  3
_ _ _ _ _
 72
    65
 73
     2
 40
0.11811023622
 49
0.07874015748
 74
     0
 49
-0.03937007874
 74
     0
  0
LTYPE
  5
1B9C1
330
1B865
100
AcDbSymbolTableRecord
100
AcDbLinetypeTableRecord
  2
ACISOWELD
 70
     0
  3
_ _ _ _ _
 72
    65
 73
     2
 40
2.0
 49
2.0
 74
     0
 49
-1.0
 74
     0
  0
LTYPE
  5
1B9C2
330
1B865
100
AcDbSymbolTableRecord
100
AcDbLinetypeTableRecord
  2
ACISOTGB
 70
     0
  3
__ . . __ . .
 72
    65
 73
     6
 40
9.0
 49
4.0
 74
     0
 49
-1.0
 74
     0
 49
1.0
 74
     0
 49
-1.0
 74
     0
 49
1.0
 74
     0
 49
-1.0
 74
     0
  0
LTYPE
  5
1B9C3
330
1B865
100
AcDbSymbolTableRecord
100
AcDbLinetypeTableRecord
  2
ACISOTGL
 70
     0
  3
_ _ _ _ _
 72
    65
 73
     2
 40
3.0
 49
2.0
 74
     0
 49
-1.0
 74
     0
  0
LTYPE
  5
1C9D6
330
1B865
100
AcDbSymbolTableRecord
100
AcDbLinetypeTableRecord
  2
CENTER1
 70
     0
  3
----- - ----- - ----- - ----- - 
 72
    65
 73
     4
 40
10.0
 49
6.25
 74
     0
 49
-1.25
 74
     0
 49
1.25
 74
     0
 49
-1.25
 74
     0
  0
ENDTAB
  0
TABLE
  2
LAYER
  5
1B862
102
{ACAD_XDICTIONARY
360
1B9CE
102
}
330
0
100
AcDbSymbolTable
 70
    12
  0
LAYER
  5
1B885
102
{ACAD_XDICTIONARY
360
1C972
102
}
330
1B862
100
AcDbSymbolTableRecord
100
AcDbLayerTableRecord
  2
0
 70
     0
 62
     7
  6
CONTINUOUS
  0
LAYER
  5
1B905
102
{ACAD_XDICTIONARY
360
1C986
102
}
330
1B862
100
AcDbSymbolTableRecord
100
AcDbLayerTableRecord
  2
AM_0
 70
     0
 62
     7
  6
CONTINUOUS
  0
LAYER
  5
1B906
102
{ACAD_XDICTIONARY
360
1C988
102
}
330
1B862
100
AcDbSymbolTableRecord
100
AcDbLayerTableRecord
  2
AM_5
 70
     0
 62
     3
  6
CONTINUOUS
  0
LAYER
  5
1B907
102
{ACAD_XDICTIONARY
360
1C98A
102
}
330
1B862
100
AcDbSymbolTableRecord
100
AcDbLayerTableRecord
  2
DEFPOINTS
 70
     1
 62
    -7
  6
CONTINUOUS
  0
LAYER
  5
1B908
102
{ACAD_XDICTIONARY
360
1C98C
102
}
330
1B862
100
AcDbSymbolTableRecord
100
AcDbLayerTableRecord
  2
CONT_S_2
 70
     0
 62
     2
  6
CONTINUOUS
  0
LAYER
  5
1B909
102
{ACAD_XDICTIONARY
360
1C98E
102
}
330
1B862
100
AcDbSymbolTableRecord
100
AcDbLayerTableRecord
  2
MJ
 70
     0
 62
     2
  6
CONTINUOUS
  0
LAYER
  5
1B90A
102
{ACAD_XDICTIONARY
360
1C990
102
}
330
1B862
100
AcDbSymbolTableRecord
100
AcDbLayerTableRecord
  2
OS
 70
     0
 62
     2
  6
CONTINUOUS
  0
LAYER
  5
1B90B
102
{ACAD_XDICTIONARY
360
1C992
102
}
330
1B862
100
AcDbSymbolTableRecord
100
AcDbLayerTableRecord
  2
WK
 70
     0
 62
     7
  6
CONTINUOUS
  0
LAYER
  5
1B90C
102
{ACAD_XDICTIONARY
360
1C994
102
}
330
1B862
100
AcDbSymbolTableRecord
100
AcDbLayerTableRecord
  2
AM_2
 70
     0
 62
     4
  6
CONTINUOUS
  0
LAYER
  5
1B90D
102
{ACAD_XDICTIONARY
360
1C996
102
}
330
1B862
100
AcDbSymbolTableRecord
100
AcDbLayerTableRecord
  2
________
 70
     0
 62
     4
  6
DD1
  0
LAYER
  5
1B90E
102
{ACAD_XDICTIONARY
360
1C998
102
}
330
1B862
100
AcDbSymbolTableRecord
100
AcDbLayerTableRecord
  2
TS
 70
     0
 62
     6
  6
DASHED1
  0
LAYER
  5
1BA50
102
{ACAD_XDICTIONARY
360
1BA51
102
}
330
1B862
100
AcDbSymbolTableRecord
100
AcDbLayerTableRecord
  2
１点斜線
 70
     0
 62
     4
  6
DD1
1001
ACAECLAYERSTANDARD
1000

1000

1001
ACCMTRANSPARENCY
1071
 33554687
  0
ENDTAB
  0
TABLE
  2
STYLE
  5
1B863
330
0
100
AcDbSymbolTable
 70
     9
  0
STYLE
  5
1B886
330
1B863
100
AcDbSymbolTableRecord
100
AcDbTextStyleTableRecord
  2
STANDARD
 70
     0
 40
0.0
 41
0.8299999999999998
 50
0.0
 71
     0
 42
2.5
  3
romans.shx
  4
extfont2.shx
  0
STYLE
  5
1B89F
330
1B863
100
AcDbSymbolTableRecord
100
AcDbTextStyleTableRecord
  2
ACJISGDT
 70
     0
 40
0.0
 41
1.0
 50
0.0
 71
     0
 42
2.5
  3
amgdt.shx
  4

  0
STYLE
  5
1B8A0
330
1B863
100
AcDbSymbolTableRecord
100
AcDbTextStyleTableRecord
  2
SIMPLEX
 70
     0
 40
0.0
 41
1.0
 50
0.0
 71
     0
 42
3.5
  3
simplex.shx
  4
extfont2.shx
  0
STYLE
  5
1B8A1
330
1B863
100
AcDbSymbolTableRecord
100
AcDbTextStyleTableRecord
  2
SIMPLEXT
 70
     4
 40
0.0
 41
1.0
 50
0.0
 71
     0
 42
2.5
  3
simplex.shx
  4
extfont2.shx
  0
STYLE
  5
1B98A
330
1B863
100
AcDbSymbolTableRecord
100
AcDbTextStyleTableRecord
  2

 70
     1
 40
0.0
 41
1.0
 50
0.0
 71
     0
 42
2.5
  3
genltshp.shx
  4

  0
STYLE
  5
1B98C
330
1B863
100
AcDbSymbolTableRecord
100
AcDbTextStyleTableRecord
  2
ACANSTS
 70
     0
 40
1.0
 41
1.0
 50
0.0
 71
     0
 42
2.5
  3
romans.shx
  4
extfont.shx
  0
STYLE
  5
1B999
330
1B863
100
AcDbSymbolTableRecord
100
AcDbTextStyleTableRecord
  2
ACANSGDT
 70
     0
 40
0.0
 41
1.0
 50
0.0
 71
     0
 42
2.5
  3
amgdt.shx
  4

  0
STYLE
  5
1B9C4
330
1B863
100
AcDbSymbolTableRecord
100
AcDbTextStyleTableRecord
  2
ACISOTS
 70
     0
 40
1.0
 41
1.0
 50
0.0
 71
     0
 42
2.5
  3
isocp.shx
  4
extfont.shx
  0
STYLE
  5
1B9C5
330
1B863
100
AcDbSymbolTableRecord
100
AcDbTextStyleTableRecord
  2
ACISOGDT
 70
     0
 40
0.0
 41
1.0
 50
0.0
 71
     0
 42
2.5
  3
amgdt.shx
  4

  0
ENDTAB
  0
TABLE
  2
VIEW
  5
1B866
330
0
100
AcDbSymbolTable
 70
     6
  0
VIEW
  5
1B8AE
102
{ACAD_XDICTIONARY
360
1C97A
102
}
330
1B866
100
AcDbSymbolTableRecord
100
AcDbViewTableRecord
  2
AM_VIEW1
 70
     0
 40
351.5943593853809
 10
-869.4999962207091
 20
-329.7971788144017
 41
420.9999991601575
 11
0.0
 21
0.0
 31
1.0
 12
0.0
 22
0.0
 32
0.0
 42
50.0
 43
0.0
 44
0.0
 50
0.0
 71
     0
  0
VIEW
  5
1B8AF
102
{ACAD_XDICTIONARY
360
1C97C
102
}
330
1B866
100
AcDbSymbolTableRecord
100
AcDbViewTableRecord
  2
AM_VIEW2
 70
     0
 40
351.5943593853809
 10
-448.4999970605516
 20
-329.7971788144017
 41
420.9999991601575
 11
0.0
 21
0.0
 31
1.0
 12
0.0
 22
0.0
 32
0.0
 42
50.0
 43
0.0
 44
0.0
 50
0.0
 71
     0
  0
VIEW
  5
1B8B0
102
{ACAD_XDICTIONARY
360
1C97E
102
}
330
1B866
100
AcDbSymbolTableRecord
100
AcDbViewTableRecord
  2
AM_VIEW3
 70
     0
 40
351.5943593853809
 10
-869.4999962207091
 20
-574.2028188434947
 41
420.9999991601575
 11
0.0
 21
0.0
 31
1.0
 12
0.0
 22
0.0
 32
0.0
 42
50.0
 43
0.0
 44
0.0
 50
0.0
 71
     0
  0
VIEW
  5
1B8B1
102
{ACAD_XDICTIONARY
360
1C980
102
}
330
1B866
100
AcDbSymbolTableRecord
100
AcDbViewTableRecord
  2
AM_VIEW4
 70
     0
 40
351.5943593853809
 10
-448.4999970605516
 20
-574.2028188434947
 41
420.9999991601575
 11
0.0
 21
0.0
 31
1.0
 12
0.0
 22
0.0
 32
0.0
 42
50.0
 43
0.0
 44
0.0
 50
0.0
 71
     0
  0
VIEW
  5
1B8B2
102
{ACAD_XDICTIONARY
360
1C982
102
}
330
1B866
100
AcDbSymbolTableRecord
100
AcDbViewTableRecord
  2
AM_VIEW5
 70
     0
 40
351.5943593853809
 10
-658.9999966406303
 20
-451.9999988289483
 41
420.9999991601575
 11
0.0
 21
0.0
 31
1.0
 12
0.0
 22
0.0
 32
0.0
 42
50.0
 43
0.0
 44
0.0
 50
0.0
 71
     0
  0
VIEW
  5
1B8B3
102
{ACAD_XDICTIONARY
360
1C984
102
}
330
1B866
100
AcDbSymbolTableRecord
100
AcDbViewTableRecord
  2
AM_VIEW6
 70
     0
 40
703.1816868835744
 10
-658.9999966406303
 20
-451.9999988289483
 41
841.9915783203318
 11
0.0
 21
0.0
 31
1.0
 12
0.0
 22
0.0
 32
0.0
 42
50.0
 43
0.0
 44
0.0
 50
0.0
 71
     0
  0
ENDTAB
  0
TABLE
  2
UCS
  5
1B867
330
0
100
AcDbSymbolTable
 70
     0
  0
ENDTAB
  0
TABLE
  2
APPID
  5
1B869
330
0
100
AcDbSymbolTable
 70
    75
  0
APPID
  5
1B887
330
1B869
100
AcDbSymbolTableRecord
100
AcDbRegAppTableRecord
  2
ACAD
 70
     0
  0
APPID
  5
1B8B5
330
1B869
100
AcDbSymbolTableRecord
100
AcDbRegAppTableRecord
  2
MCAD_NO_VIS
 70
     0
  0
APPID
  5
1B8B6
330
1B869
100
AcDbSymbolTableRecord
100
AcDbRegAppTableRecord
  2
ACAD_TEMP_GRAPHIC
 70
     0
  0
APPID
  5
1B8B7
330
1B869
100
AcDbSymbolTableRecord
100
AcDbRegAppTableRecord
  2
ACATTRIBSERVICES
 70
     0
  0
APPID
  5
1B8B8
330
1B869
100
AcDbSymbolTableRecord
100
AcDbRegAppTableRecord
  2
GENIUS_GENDIMSH_14
 70
     0
  0
APPID
  5
1B8B9
330
1B869
100
AcDbSymbolTableRecord
100
AcDbRegAppTableRecord
  2
GENIUS_GENOLIS_13
 70
     0
  0
APPID
  5
1B8BA
330
1B869
100
AcDbSymbolTableRecord
100
AcDbRegAppTableRecord
  2
GENIUS_GENOENT_13
 70
     0
  0
APPID
  5
1B8BB
330
1B869
100
AcDbSymbolTableRecord
100
AcDbRegAppTableRecord
  2
GENIUS_GENOBJ-N-TIT_13
 70
     0
  0
APPID
  5
1B8BC
330
1B869
100
AcDbSymbolTableRecord
100
AcDbRegAppTableRecord
  2
GENIUS_GENODEF_13
 70
     0
  0
APPID
  5
1B8BD
330
1B869
100
AcDbSymbolTableRecord
100
AcDbRegAppTableRecord
  2
GENIUS_GENTITLE_13
 70
     0
  0
APPID
  5
1B8BE
330
1B869
100
AcDbSymbolTableRecord
100
AcDbRegAppTableRecord
  2
GENIUS_GENOREF_13
 70
     0
  0
APPID
  5
1B8BF
330
1B869
100
AcDbSymbolTableRecord
100
AcDbRegAppTableRecord
  2
GENIUS_GENSCREG_15
 70
     0
  0
APPID
  5
1B8C0
330
1B869
100
AcDbSymbolTableRecord
100
AcDbRegAppTableRecord
  2
GENIUS_GENOBJ-N-SDF_13
 70
     0
  0
APPID
  5
1B8C1
330
1B869
100
AcDbSymbolTableRecord
100
AcDbRegAppTableRecord
  2
GENIUS_GENOBJ-N-REV_13
 70
     0
  0
APPID
  5
1B8C2
330
1B869
100
AcDbSymbolTableRecord
100
AcDbRegAppTableRecord
  2
GENIUS_GENOBJ-N-RSSYM_13
 70
     0
  0
APPID
  5
1B8C3
330
1B869
100
AcDbSymbolTableRecord
100
AcDbRegAppTableRecord
  2
GENIUS_GENSYMENT_13
 70
     0
  0
APPID
  5
1B8C4
330
1B869
100
AcDbSymbolTableRecord
100
AcDbRegAppTableRecord
  2
GENIUS_GENSCSYM_13
 70
     0
  0
APPID
  5
1B8C5
330
1B869
100
AcDbSymbolTableRecord
100
AcDbRegAppTableRecord
  2
DCO15
 70
     0
  0
APPID
  5
1B8C6
330
1B869
100
AcDbSymbolTableRecord
100
AcDbRegAppTableRecord
  2
GENIUS_GENDTOL_13
 70
     0
  0
APPID
  5
1B8C7
330
1B869
100
AcDbSymbolTableRecord
100
AcDbRegAppTableRecord
  2
HC_SUPERPART
 70
     0
  0
APPID
  5
1B8C8
330
1B869
100
AcDbSymbolTableRecord
100
AcDbRegAppTableRecord
  2
HC_SP4BLOCK
 70
     0
  0
APPID
  5
1B8C9
330
1B869
100
AcDbSymbolTableRecord
100
AcDbRegAppTableRecord
  2
HC_XDATA_SPRING
 70
     0
  0
APPID
  5
1B8CA
330
1B869
100
AcDbSymbolTableRecord
100
AcDbRegAppTableRecord
  2
HCCAD_FRAME
 70
     0
  0
APPID
  5
1B8CB
330
1B869
100
AcDbSymbolTableRecord
100
AcDbRegAppTableRecord
  2
GENIUS_GENOBJ-N-ZOO_13
 70
     0
  0
APPID
  5
1B8CC
330
1B869
100
AcDbSymbolTableRecord
100
AcDbRegAppTableRecord
  2
GENIUS_GENREV_15
 70
     0
  0
APPID
  5
1B8CD
330
1B869
100
AcDbSymbolTableRecord
100
AcDbRegAppTableRecord
  2
HRA
 70
     0
  0
APPID
  5
1B8CE
330
1B869
100
AcDbSymbolTableRecord
100
AcDbRegAppTableRecord
  2
HTIT
 70
     0
  0
APPID
  5
1B8CF
330
1B869
100
AcDbSymbolTableRecord
100
AcDbRegAppTableRecord
  2
GENIUS_GENZOO_17
 70
     0
  0
APPID
  5
1B8D0
330
1B869
100
AcDbSymbolTableRecord
100
AcDbRegAppTableRecord
  2
GENIUS_GENOBJ-N-CEN_13
 70
     0
  0
APPID
  5
1B8D1
330
1B869
100
AcDbSymbolTableRecord
100
AcDbRegAppTableRecord
  2
GENIUS_GENCEN_19
 70
     0
  0
APPID
  5
1B8D2
330
1B869
100
AcDbSymbolTableRecord
100
AcDbRegAppTableRecord
  2
GENIUS_GENOBJ-N-CRS_13
 70
     0
  0
APPID
  5
1B8D3
330
1B869
100
AcDbSymbolTableRecord
100
AcDbRegAppTableRecord
  2
GENIUS_GENCRS_20
 70
     0
  0
APPID
  5
1B8D4
330
1B869
100
AcDbSymbolTableRecord
100
AcDbRegAppTableRecord
  2
GENIUS_GENOBJ-N-CRC_13
 70
     0
  0
APPID
  5
1B8D5
330
1B869
100
AcDbSymbolTableRecord
100
AcDbRegAppTableRecord
  2
GENIUS_GENCRC_14
 70
     0
  0
APPID
  5
1B8D6
330
1B869
100
AcDbSymbolTableRecord
100
AcDbRegAppTableRecord
  2
GENIUS_GENFIL_13
 70
     0
  0
APPID
  5
1B8D7
330
1B869
100
AcDbSymbolTableRecord
100
AcDbRegAppTableRecord
  2
GENIUS_GENOBJ-N-CHA_13
 70
     0
  0
APPID
  5
1B8D8
330
1B869
100
AcDbSymbolTableRecord
100
AcDbRegAppTableRecord
  2
GENIUS_GENOBJ-N-FIL_13
 70
     0
  0
APPID
  5
1B8D9
330
1B869
100
AcDbSymbolTableRecord
100
AcDbRegAppTableRecord
  2
GENIUS_GENHATCH_13
 70
     0
  0
APPID
  5
1B8DA
330
1B869
100
AcDbSymbolTableRecord
100
AcDbRegAppTableRecord
  2
GENIUS_GENOBJ-N-HTC_13
 70
     0
  0
APPID
  5
1B8DB
330
1B869
100
AcDbSymbolTableRecord
100
AcDbRegAppTableRecord
  2
GENIUS_GENDIM_13
 70
     0
  0
APPID
  5
1B8DC
330
1B869
100
AcDbSymbolTableRecord
100
AcDbRegAppTableRecord
  2
GENIUS_GENOBJ-N-DIM_13
 70
     0
  0
APPID
  5
1B8DD
330
1B869
100
AcDbSymbolTableRecord
100
AcDbRegAppTableRecord
  2
GENIUS_GENOBJ-N-DIMLI_13
 70
     0
  0
APPID
  5
1B8DE
330
1B869
100
AcDbSymbolTableRecord
100
AcDbRegAppTableRecord
  2
GENIUS_GENOBJ-N-FITL_13
 70
     0
  0
APPID
  5
1B8DF
330
1B869
100
AcDbSymbolTableRecord
100
AcDbRegAppTableRecord
  2
GENIUS_GENFITL_13
 70
     0
  0
APPID
  5
1B8E0
330
1B869
100
AcDbSymbolTableRecord
100
AcDbRegAppTableRecord
  2
GENLAYCOLOR
 70
     0
  0
APPID
  5
1B8E1
330
1B869
100
AcDbSymbolTableRecord
100
AcDbRegAppTableRecord
  2
GENIUS_GENOBJ-NBEHI-BHB_13
 70
     0
  0
APPID
  5
1B8E2
330
1B869
100
AcDbSymbolTableRecord
100
AcDbRegAppTableRecord
  2
GENIUS_GENOBJ-NBEHI-BHF_13
 70
     0
  0
APPID
  5
1B8E3
330
1B869
100
AcDbSymbolTableRecord
100
AcDbRegAppTableRecord
  2
GENIUS_GENBH_13
 70
     0
  0
APPID
  5
1B8E4
330
1B869
100
AcDbSymbolTableRecord
100
AcDbRegAppTableRecord
  2
GENIUS_GENBHRL_14
 70
     0
  0
APPID
  5
1B8E5
330
1B869
100
AcDbSymbolTableRecord
100
AcDbRegAppTableRecord
  2
ACAECLAYERSTANDARD
 70
     0
  0
APPID
  5
1B8E6
330
1B869
100
AcDbSymbolTableRecord
100
AcDbRegAppTableRecord
  2
ACAD_MLEADERVER
 70
     0
  0
APPID
  5
1B8E7
330
1B869
100
AcDbSymbolTableRecord
100
AcDbRegAppTableRecord
  2
ACCMTRANSPARENCY
 70
     0
  0
APPID
  5
1B8E8
330
1B869
100
AcDbSymbolTableRecord
100
AcDbRegAppTableRecord
  2
ACAD_DSTYLE_DIMINSPECT
 70
     0
  0
APPID
  5
1B8E9
330
1B869
100
AcDbSymbolTableRecord
100
AcDbRegAppTableRecord
  2
ACADANNOTATIVE
 70
     0
  0
APPID
  5
1B8EA
330
1B869
100
AcDbSymbolTableRecord
100
AcDbRegAppTableRecord
  2
HATCHBACKGROUNDCOLOR
 70
     0
  0
APPID
  5
1B8EB
330
1B869
100
AcDbSymbolTableRecord
100
AcDbRegAppTableRecord
  2
ACAD_DSTYLE_DIMJAG
 70
     0
  0
APPID
  5
1B8EC
330
1B869
100
AcDbSymbolTableRecord
100
AcDbRegAppTableRecord
  2
ACAD_DSTYLE_DIMBREAK
 70
     0
  0
APPID
  5
1B8ED
330
1B869
100
AcDbSymbolTableRecord
100
AcDbRegAppTableRecord
  2
ACAD_DSTYLE_DIMTALN
 70
     0
  0
APPID
  5
1B8EE
330
1B869
100
AcDbSymbolTableRecord
100
AcDbRegAppTableRecord
  2
ACAD_DSTYLE_DIMARC_LENGTH_
 70
     0
  0
APPID
  5
1B8EF
330
1B869
100
AcDbSymbolTableRecord
100
AcDbRegAppTableRecord
  2
ACAD_PSEXT
 70
     0
  0
APPID
  5
1B8F0
330
1B869
100
AcDbSymbolTableRecord
100
AcDbRegAppTableRecord
  2
PLOTTRANSPARENCY
 70
     0
  0
APPID
  5
1B8F1
330
1B869
100
AcDbSymbolTableRecord
100
AcDbRegAppTableRecord
  2
GENIUS_GENREC_14
 70
     0
  0
APPID
  5
1B8F2
330
1B869
100
AcDbSymbolTableRecord
100
AcDbRegAppTableRecord
  2
GENIUS_GENOBJ-N-REC_13
 70
     0
  0
APPID
  5
1B8F3
330
1B869
100
AcDbSymbolTableRecord
100
AcDbRegAppTableRecord
  2
ACAD_DSTYLE_DIM_LINETYPE
 70
     0
  0
APPID
  5
1B8F4
330
1B869
100
AcDbSymbolTableRecord
100
AcDbRegAppTableRecord
  2
ACAD_DSTYLE_DIM_EXT1_LINET
 70
     0
  0
APPID
  5
1B8F5
330
1B869
100
AcDbSymbolTableRecord
100
AcDbRegAppTableRecord
  2
ACAD_DSTYLE_DIM_EXT2_LINET
 70
     0
  0
APPID
  5
1B8F6
330
1B869
100
AcDbSymbolTableRecord
100
AcDbRegAppTableRecord
  2
ACADANNOPO
 70
     0
  0
APPID
  5
1B8F7
330
1B869
100
AcDbSymbolTableRecord
100
AcDbRegAppTableRecord
  2
ACAD_NAV_VCDISPLAY
 70
     0
  0
APPID
  5
1B8F8
330
1B869
100
AcDbSymbolTableRecord
100
AcDbRegAppTableRecord
  2
ACDBBLOCKREPETAG
 70
     0
  0
APPID
  5
1B955
330
1B869
100
AcDbSymbolTableRecord
100
AcDbRegAppTableRecord
  2
AD_DRAW
 70
     0
  0
APPID
  5
1B978
330
1B869
100
AcDbSymbolTableRecord
100
AcDbRegAppTableRecord
  2
DESIGNERASSEMBLIES
 70
     0
  0
APPID
  5
1B97E
330
1B869
100
AcDbSymbolTableRecord
100
AcDbRegAppTableRecord
  2
ACADM_DIM_EDIT
 70
     0
  0
APPID
  5
1B97F
330
1B869
100
AcDbSymbolTableRecord
100
AcDbRegAppTableRecord
  2
AMDT_DM_ADJ
 70
     0
  0
APPID
  5
1B9B6
330
1B869
100
AcDbSymbolTableRecord
100
AcDbRegAppTableRecord
  2
ACAD_EXEMPT_FROM_CAD_STANDARDS
 70
     0
  0
APPID
  5
1BBC5
330
1B869
100
AcDbSymbolTableRecord
100
AcDbRegAppTableRecord
  2
ACAD_DSTYLE_DIMARC_LENGTH0
 70
     0
  0
ENDTAB
  0
TABLE
  2
DIMSTYLE
  5
1B86A
330
0
100
AcDbSymbolTable
 70
    22
  0
DIMSTYLE
105
1B8F9
330
1B86A
100
AcDbSymbolTableRecord
100
AcDbDimStyleTableRecord
  2
AM_JIS
 70
     0
  3

  4
"
  5
OPEN
  6

  7

 40
1.0
 41
1.6
 42
1.0
 43
7.0
 44
1.0
 45
0.0
 46
0.0
 47
0.1
 48
0.1
140
2.5
141
0.0
142
0.0
143
0.0393701
144
1.0
145
0.0
146
0.71
147
0.625
 71
     0
 72
     0
 73
     0
 74
     0
 75
     0
 76
     0
 77
     1
 78
     8
170
     0
171
     2
172
     1
173
     0
174
     0
175
     0
176
   256
177
   256
178
   256
270
     2
271
     4
272
     4
273
     2
274
     2
340
1B886
275
     0
280
     0
281
     0
282
     0
283
     1
284
     8
285
     8
286
     8
287
     5
288
     0
  0
DIMSTYLE
105
1B8FA
330
1B86A
100
AcDbSymbolTableRecord
100
AcDbDimStyleTableRecord
  2
AM_JIS$3
 70
     0
  3

  4
"
  5
OPEN
  6

  7

 40
1.0
 41
1.6
 42
1.0
 43
7.0
 44
1.0
 45
0.0
 46
0.0
 47
0.1
 48
0.1
140
2.5
141
0.0
142
0.0
143
0.0393701
144
1.0
145
0.0
146
0.71
147
0.625
 71
     0
 72
     0
 73
     0
 74
     0
 75
     0
 76
     0
 77
     1
 78
     8
170
     0
171
     2
172
     1
173
     0
174
     0
175
     0
176
   256
177
   256
178
   256
270
     2
271
     4
272
     4
273
     2
274
     2
340
1B886
275
     0
280
     0
281
     0
282
     0
283
     1
284
     8
285
     8
286
     8
287
     5
288
     0
  0
DIMSTYLE
105
1B8FB
330
1B86A
100
AcDbSymbolTableRecord
100
AcDbDimStyleTableRecord
  2
AM_JIS$4
 70
     0
  3

  4
"
  5
OPEN
  6

  7

 40
1.0
 41
1.6
 42
1.0
 43
7.0
 44
1.0
 45
0.0
 46
0.0
 47
0.1
 48
0.1
140
2.5
141
0.0
142
0.0
143
0.0393701
144
1.0
145
0.0
146
0.71
147
0.625
 71
     0
 72
     0
 73
     0
 74
     0
 75
     0
 76
     0
 77
     1
 78
     8
170
     0
171
     2
172
     1
173
     0
174
     0
175
     0
176
   256
177
   256
178
   256
270
     2
271
     4
272
     4
273
     2
274
     2
340
1B886
275
     0
280
     0
281
     0
282
     0
283
     1
284
     8
285
     8
286
     8
287
     5
288
     0
  0
DIMSTYLE
105
1B8FC
330
1B86A
100
AcDbSymbolTableRecord
100
AcDbDimStyleTableRecord
  2
AM_JIS$6
 70
     0
  3

  4
"
  5
OPEN
  6

  7

 40
1.0
 41
1.6
 42
1.0
 43
7.0
 44
1.0
 45
0.0
 46
0.0
 47
0.1
 48
0.1
140
2.5
141
0.0
142
0.0
143
0.0393701
144
1.0
145
0.0
146
0.71
147
0.625
 71
     0
 72
     0
 73
     0
 74
     0
 75
     0
 76
     0
 77
     0
 78
     8
170
     0
171
     2
172
     1
173
     0
174
     0
175
     0
176
   256
177
   256
178
   256
270
     2
271
     4
272
     4
273
     2
274
     2
340
1B886
275
     0
280
     0
281
     0
282
     0
283
     1
284
     8
285
     8
286
     8
287
     5
288
     0
  0
DIMSTYLE
105
1B8FD
330
1B86A
100
AcDbSymbolTableRecord
100
AcDbDimStyleTableRecord
  2
AM_JIS$7
 70
     0
  3

  4
"
  5
OPEN
  6

  7

 40
1.0
 41
1.6
 42
1.0
 43
7.0
 44
1.0
 45
0.0
 46
0.0
 47
0.1
 48
0.1
140
2.5
141
0.0
142
0.0
143
0.0393701
144
1.0
145
0.0
146
0.71
147
0.625
 71
     0
 72
     0
 73
     0
 74
     0
 75
     0
 76
     0
 77
     1
 78
     8
170
     0
171
     2
172
     1
173
     0
174
     0
175
     0
176
   256
177
   256
178
   256
270
     2
271
     4
272
     4
273
     2
274
     2
340
1B886
275
     0
280
     0
281
     0
282
     0
283
     1
284
     8
285
     8
286
     8
287
     5
288
     0
  0
DIMSTYLE
105
1B8FE
330
1B86A
100
AcDbSymbolTableRecord
100
AcDbDimStyleTableRecord
  2
AM_JIS$SF
 70
     0
  3

  4
"
  5
OPEN30
  6
OPEN30
  7
OPEN30
 40
1.0
 41
2.5
 42
1.0
 43
10.0
 44
1.0
 45
0.0
 46
0.0
 47
0.1
 48
0.1
140
3.5
141
0.0
142
0.0
143
0.0393701
144
1.0
145
0.0
146
0.71
147
1.5
 71
     0
 72
     0
 73
     0
 74
     0
 75
     1
 76
     1
 77
     3
 78
     8
170
     0
171
     2
172
     1
173
     0
174
     0
175
     0
176
   256
177
   256
178
     2
270
     2
271
     4
272
     4
273
     2
274
     2
340
1B886
275
     0
280
     0
281
     0
282
     0
283
     1
284
     8
285
     8
286
     8
287
     5
288
     0
  0
DIMSTYLE
105
1B8FF
330
1B86A
100
AcDbSymbolTableRecord
100
AcDbDimStyleTableRecord
  2
AM_JIS$SH
 70
     0
  3

  4
"
  5
OPEN30
  6
GENAXEH
  7
OPEN30
 40
1.0
 41
2.5
 42
1.0
 43
10.0
 44
1.0
 45
0.0
 46
0.0
 47
0.1
 48
0.1
140
3.5
141
0.0
142
0.0
143
0.0393701
144
2.0
145
0.0
146
0.71
147
1.5
 71
     0
 72
     0
 73
     0
 74
     0
 75
     1
 76
     1
 77
     3
 78
     8
170
     0
171
     2
172
     1
173
     1
174
     0
175
     0
176
   256
177
   256
178
     2
270
     2
271
     4
272
     4
273
     2
274
     2
340
1B886
275
     0
280
     0
281
     0
282
     0
283
     1
284
     8
285
     8
286
     8
287
     5
288
     0
  0
DIMSTYLE
105
1B900
330
1B86A
100
AcDbSymbolTableRecord
100
AcDbDimStyleTableRecord
  2
DTOS-2
 70
     0
  3

  4
"
  5
SMALL
  6

  7

 40
2.0
 41
1.0
 42
1.0
 43
7.0
 44
1.0
 45
0.0
 46
0.0
 47
0.1
 48
0.1
140
3.0
141
0.0
142
0.0
143
0.0393701
144
1.0
145
0.0
146
0.71
147
1.0
 71
     0
 72
     0
 73
     0
 74
     0
 75
     0
 76
     0
 77
     1
 78
     8
170
     0
171
     2
172
     1
173
     0
174
     1
175
     0
176
   256
177
   256
178
   256
270
     2
271
     4
272
     4
273
     2
274
     2
340
1B886
275
     0
280
     0
281
     0
282
     0
283
     1
284
     8
285
     8
286
     8
287
     5
288
     0
  0
DIMSTYLE
105
1B901
330
1B86A
100
AcDbSymbolTableRecord
100
AcDbDimStyleTableRecord
  2
STANDARD
 70
     0
  3

  4

  5

  6

  7

 40
1.0
 41
0.18
 42
0.0625
 43
0.38
 44
0.18
 45
0.0
 46
0.0
 47
0.0
 48
0.0
140
0.18
141
0.09
142
0.0
143
25.4
144
1.0
145
0.0
146
1.0
147
0.09
 71
     0
 72
     0
 73
     1
 74
     1
 75
     0
 76
     0
 77
     0
 78
     0
170
     0
171
     2
172
     0
173
     0
174
     0
175
     0
176
     0
177
     0
178
     0
270
     2
271
     4
272
     4
273
     2
274
     2
340
1B886
275
     0
280
     0
281
     0
282
     0
283
     1
284
     8
285
     8
286
     8
287
     5
288
     0
  0
DIMSTYLE
105
1B9A6
330
1B86A
100
AcDbSymbolTableRecord
100
AcDbDimStyleTableRecord
  2
AM_ANSI
 70
     0
  3

  4
mm
  5

  6

  7

 40
1.0
 41
0.1
 42
0.05
 43
0.5
 44
0.1
 45
0.0
 46
0.0
 47
0.1
 48
0.1
140
0.12
141
0.0
142
0.0
143
25.4
144
1.0
145
0.0
146
0.71
147
0.06
 71
     0
 72
     0
 73
     1
 74
     1
 75
     0
 76
     0
 77
     0
 78
     7
170
     0
171
     2
172
     0
173
     0
174
     0
175
     0
176
   256
177
   256
178
     2
270
     2
271
     4
272
     4
273
     2
274
     4
340
1B886
275
     0
280
     0
281
     0
282
     0
283
     1
284
     7
285
     0
286
     0
287
     3
288
     0
1001
ACAD_DSTYLE_DIMARC_LENGTH0
1070
   379
1070
     1
  0
DIMSTYLE
105
1B9A7
330
1B86A
100
AcDbSymbolTableRecord
100
AcDbDimStyleTableRecord
  2
AM_ANSI$3
 70
     0
  3

  4
mm
  5

  6

  7

 40
1.0
 41
0.1
 42
0.05
 43
0.5
 44
0.1
 45
0.0
 46
0.0
 47
0.1
 48
0.1
140
0.12
141
0.0
142
0.0
143
25.4
144
1.0
145
0.0
146
0.71
147
0.06
 71
     0
 72
     0
 73
     1
 74
     1
 75
     0
 76
     0
 77
     0
 78
     7
170
     0
171
     2
172
     0
173
     0
174
     0
175
     0
176
   256
177
   256
178
     2
270
     2
271
     4
272
     4
273
     2
274
     4
340
1B886
275
     0
280
     0
281
     0
282
     0
283
     1
284
     7
285
     0
286
     0
287
     0
288
     1
1001
ACAD_DSTYLE_DIMARC_LENGTH0
1070
   379
1070
     1
  0
DIMSTYLE
105
1B9A8
330
1B86A
100
AcDbSymbolTableRecord
100
AcDbDimStyleTableRecord
  2
AM_ANSI$4
 70
     0
  3

  4
mm
  5

  6

  7

 40
1.0
 41
0.1
 42
0.05
 43
0.5
 44
0.1
 45
0.0
 46
0.0
 47
0.1
 48
0.1
140
0.12
141
0.0
142
0.0
143
25.4
144
1.0
145
0.0
146
0.71
147
0.06
 71
     0
 72
     0
 73
     1
 74
     1
 75
     0
 76
     0
 77
     0
 78
     7
170
     0
171
     2
172
     0
173
     0
174
     0
175
     0
176
   256
177
   256
178
     2
270
     2
271
     4
272
     4
273
     2
274
     4
340
1B886
275
     0
280
     0
281
     0
282
     0
283
     1
284
     7
285
     0
286
     0
287
     0
288
     1
1001
ACAD_DSTYLE_DIMARC_LENGTH0
1070
   379
1070
     1
  0
DIMSTYLE
105
1B9A9
330
1B86A
100
AcDbSymbolTableRecord
100
AcDbDimStyleTableRecord
  2
AM_ANSI$7
 70
     0
  3

  4
mm
  5

  6

  7

 40
1.0
 41
0.1
 42
0.05
 43
0.5
 44
0.1
 45
0.0
 46
0.0
 47
0.1
 48
0.1
140
0.24
141
0.0
142
0.0
143
25.4
144
1.0
145
0.0
146
0.71
147
0.06
 71
     0
 72
     0
 73
     1
 74
     1
 75
     0
 76
     0
 77
     0
 78
     7
170
     0
171
     2
172
     0
173
     0
174
     0
175
     0
176
   256
177
   256
178
     2
270
     2
271
     4
272
     4
273
     2
274
     4
340
1B886
275
     0
280
     0
281
     0
282
     0
283
     1
284
     7
285
     0
286
     0
287
     3
288
     0
1001
ACAD_DSTYLE_DIMARC_LENGTH0
1070
   379
1070
     1
  0
DIMSTYLE
105
1B9AA
330
1B86A
100
AcDbSymbolTableRecord
100
AcDbDimStyleTableRecord
  2
AM_ANSI$SF
 70
     0
  3

  4
mm
  5

  6

  7

 40
1.0
 41
0.1
 42
0.05
 43
0.5
 44
0.1
 45
0.0
 46
0.0
 47
0.1
 48
0.1
140
0.12
141
0.0
142
0.0
143
25.4
144
1.0
145
0.0
146
0.71
147
0.06
 71
     0
 72
     0
 73
     1
 74
     1
 75
     1
 76
     1
 77
     0
 78
     7
170
     0
171
     2
172
     0
173
     0
174
     0
175
     0
176
   256
177
   256
178
     2
270
     2
271
     4
272
     4
273
     2
274
     4
340
1B886
275
     0
280
     0
281
     0
282
     0
283
     1
284
     7
285
     0
286
     0
287
     3
288
     0
1001
ACAD_DSTYLE_DIMARC_LENGTH0
1070
   379
1070
     1
  0
DIMSTYLE
105
1B9AB
330
1B86A
100
AcDbSymbolTableRecord
100
AcDbDimStyleTableRecord
  2
AM_ANSI$SH
 70
     0
  3

  4
mm
  5

  6
GENAXEH
  7

 40
1.0
 41
0.1
 42
0.05
 43
0.5
 44
0.1
 45
0.0
 46
0.0
 47
0.1
 48
0.1
140
0.12
141
0.0
142
0.0
143
25.4
144
1.0
145
0.0
146
0.71
147
0.06
 71
     0
 72
     0
 73
     1
 74
     1
 75
     1
 76
     1
 77
     0
 78
     7
170
     0
171
     2
172
     0
173
     1
174
     0
175
     0
176
   256
177
   256
178
     2
270
     2
271
     4
272
     4
273
     2
274
     4
340
1B886
275
     0
280
     0
281
     0
282
     0
283
     1
284
     7
285
     0
286
     0
287
     3
288
     0
1001
ACAD_DSTYLE_DIMARC_LENGTH0
1070
   379
1070
     1
  0
DIMSTYLE
105
1B9C6
330
1B86A
100
AcDbSymbolTableRecord
100
AcDbDimStyleTableRecord
  2
AM_ISO
 70
     0
  3

  4
"
  5

  6

  7

 40
1.0
 41
2.5
 42
1.0
 43
10.0
 44
1.0
 45
0.0
 46
0.0
 47
0.1
 48
0.1
140
3.5
141
0.0
142
0.0
143
0.0393701
144
1.0
145
0.0
146
0.71
147
1.5
 71
     0
 72
     0
 73
     0
 74
     0
 75
     0
 76
     0
 77
     1
 78
     8
170
     0
171
     2
172
     1
173
     0
174
     0
175
     0
176
   256
177
   256
178
     2
270
     2
271
     2
272
     3
273
     2
274
     4
340
1B886
275
     0
280
     0
281
     0
282
     0
283
     0
284
     8
285
     0
286
     0
287
     3
288
     0
1001
ACAD_DSTYLE_DIMARC_LENGTH0
1070
   379
1070
     1
  0
DIMSTYLE
105
1B9C7
330
1B86A
100
AcDbSymbolTableRecord
100
AcDbDimStyleTableRecord
  2
AM_ISO$3
 70
     0
  3

  4
"
  5

  6

  7

 40
1.0
 41
2.5
 42
1.0
 43
10.0
 44
1.0
 45
0.0
 46
0.0
 47
0.1
 48
0.1
140
3.5
141
0.0
142
0.0
143
0.0393701
144
1.0
145
0.0
146
0.71
147
1.5
 71
     0
 72
     0
 73
     0
 74
     1
 75
     0
 76
     0
 77
     1
 78
     8
170
     0
171
     2
172
     0
173
     0
174
     0
175
     0
176
   256
177
   256
178
     2
270
     2
271
     2
272
     3
273
     2
274
     4
340
1B886
275
     0
280
     0
281
     0
282
     0
283
     0
284
     8
285
     0
286
     0
287
     0
288
     1
1001
ACAD_DSTYLE_DIMARC_LENGTH0
1070
   379
1070
     1
  0
DIMSTYLE
105
1B9C8
330
1B86A
100
AcDbSymbolTableRecord
100
AcDbDimStyleTableRecord
  2
AM_ISO$4
 70
     0
  3

  4
"
  5

  6

  7

 40
1.0
 41
2.5
 42
1.0
 43
10.0
 44
1.0
 45
0.0
 46
0.0
 47
0.1
 48
0.1
140
3.5
141
0.0
142
0.0
143
0.0393701
144
1.0
145
0.0
146
0.71
147
1.5
 71
     0
 72
     0
 73
     0
 74
     1
 75
     0
 76
     0
 77
     1
 78
     8
170
     0
171
     2
172
     0
173
     0
174
     0
175
     0
176
   256
177
   256
178
     2
270
     2
271
     2
272
     3
273
     2
274
     4
340
1B886
275
     0
280
     0
281
     0
282
     0
283
     0
284
     8
285
     0
286
     0
287
     0
288
     1
1001
ACAD_DSTYLE_DIMARC_LENGTH0
1070
   379
1070
     1
  0
DIMSTYLE
105
1B9C9
330
1B86A
100
AcDbSymbolTableRecord
100
AcDbDimStyleTableRecord
  2
AM_ISO$6
 70
     0
  3

  4
"
  5

  6

  7

 40
1.0
 41
2.5
 42
1.0
 43
10.0
 44
1.0
 45
0.0
 46
0.0
 47
0.1
 48
0.1
140
3.5
141
0.0
142
0.0
143
0.0393701
144
1.0
145
0.0
146
0.71
147
1.5
 71
     0
 72
     0
 73
     0
 74
     0
 75
     0
 76
     0
 77
     0
 78
     8
170
     0
171
     2
172
     1
173
     0
174
     0
175
     0
176
   256
177
   256
178
     2
270
     2
271
     2
272
     3
273
     2
274
     4
340
1B886
275
     0
280
     0
281
     0
282
     0
283
     0
284
     8
285
     0
286
     0
287
     3
288
     0
1001
ACAD_DSTYLE_DIMARC_LENGTH0
1070
   379
1070
     1
  0
DIMSTYLE
105
1B9CA
330
1B86A
100
AcDbSymbolTableRecord
100
AcDbDimStyleTableRecord
  2
AM_ISO$7
 70
     0
  3

  4
"
  5

  6

  7

 40
1.0
 41
2.5
 42
1.0
 43
10.0
 44
1.0
 45
0.0
 46
0.0
 47
0.1
 48
0.1
140
5.0
141
0.0
142
0.0
143
0.0393701
144
1.0
145
0.0
146
0.71
147
1.5
 71
     0
 72
     0
 73
     0
 74
     0
 75
     0
 76
     0
 77
     1
 78
     8
170
     0
171
     2
172
     1
173
     0
174
     0
175
     0
176
   256
177
   256
178
     2
270
     2
271
     2
272
     3
273
     2
274
     4
340
1B886
275
     0
280
     0
281
     0
282
     0
283
     0
284
     8
285
     0
286
     0
287
     3
288
     0
1001
ACAD_DSTYLE_DIMARC_LENGTH0
1070
   379
1070
     1
  0
DIMSTYLE
105
1B9CB
330
1B86A
100
AcDbSymbolTableRecord
100
AcDbDimStyleTableRecord
  2
AM_ISO$SF
 70
     0
  3

  4
"
  5

  6

  7

 40
1.0
 41
2.5
 42
1.0
 43
10.0
 44
1.0
 45
0.0
 46
0.0
 47
0.1
 48
0.1
140
3.5
141
0.0
142
0.0
143
0.0393701
144
1.0
145
0.0
146
0.71
147
1.5
 71
     0
 72
     0
 73
     0
 74
     0
 75
     1
 76
     1
 77
     1
 78
     8
170
     0
171
     2
172
     1
173
     0
174
     0
175
     0
176
   256
177
   256
178
     2
270
     2
271
     2
272
     3
273
     2
274
     4
340
1B886
275
     0
280
     0
281
     0
282
     0
283
     0
284
     8
285
     0
286
     0
287
     3
288
     0
1001
ACAD_DSTYLE_DIMARC_LENGTH0
1070
   379
1070
     1
  0
DIMSTYLE
105
1B9CC
330
1B86A
100
AcDbSymbolTableRecord
100
AcDbDimStyleTableRecord
  2
AM_ISO$SH
 70
     0
  3

  4
"
  5

  6
GENAXEH
  7

 40
1.0
 41
2.5
 42
1.0
 43
10.0
 44
1.0
 45
0.0
 46
0.0
 47
0.1
 48
0.1
140
3.5
141
0.0
142
0.0
143
0.0393701
144
2.0
145
0.0
146
0.71
147
1.5
 71
     0
 72
     0
 73
     0
 74
     0
 75
     1
 76
     1
 77
     1
 78
     8
170
     0
171
     2
172
     1
173
     1
174
     0
175
     0
176
   256
177
   256
178
     2
270
     2
271
     2
272
     3
273
     2
274
     4
340
1B886
275
     0
280
     0
281
     0
282
     0
283
     0
284
     8
285
     0
286
     0
287
     3
288
     0
1001
ACAD_DSTYLE_DIMARC_LENGTH0
1070
   379
1070
     1
  0
ENDTAB
  0
TABLE
  2
BLOCK_RECORD
  5
1B861
330
0
100
AcDbSymbolTable
 70
     4
  0
BLOCK_RECORD
  5
1B896
102
{ACAD_XDICTIONARY
360
1B9BD
102
}
330
1B861
100
AcDbSymbolTableRecord
100
AcDbBlockTableRecord
  2
*MODEL_SPACE
  0
BLOCK_RECORD
  5
1B892
102
{ACAD_XDICTIONARY
360
1CBA7
102
}
330
1B861
100
AcDbSymbolTableRecord
100
AcDbBlockTableRecord
  2
*PAPER_SPACE
  0
BLOCK_RECORD
  5
1B89A
330
1B861
100
AcDbSymbolTableRecord
100
AcDbBlockTableRecord
  2
_OPEN30
  0
BLOCK_RECORD
  5
1B89B
330
1B861
100
AcDbSymbolTableRecord
100
AcDbBlockTableRecord
  2
GENAXEH
  0
BLOCK_RECORD
  5
1B89C
330
1B861
100
AcDbSymbolTableRecord
100
AcDbBlockTableRecord
  2
_OPEN
  0
BLOCK_RECORD
  5
1B89D
330
1B861
100
AcDbSymbolTableRecord
100
AcDbBlockTableRecord
  2
_SMALL
  0
ENDTAB
  0
ENDSEC
  0
SECTION
  2
BLOCKS
  0
BLOCK
  5
1B919
330
1B896
100
AcDbEntity
  8
0
100
AcDbBlockBegin
  2
*MODEL_SPACE
 70
     0
 10
0.0
 20
0.0
 30
0.0
  3
*MODEL_SPACE
  1

  0
ENDBLK
  5
1B91A
330
1B896
100
AcDbEntity
  8
0
100
AcDbBlockEnd
  0
BLOCK
  5
1B917
330
1B892
100
AcDbEntity
 67
     1
  8
0
100
AcDbBlockBegin
  2
*PAPER_SPACE
 70
     0
 10
0.0
 20
0.0
 30
0.0
  3
*PAPER_SPACE
  1

  0
ENDBLK
  5
1B918
330
1B892
100
AcDbEntity
 67
     1
  8
0
100
AcDbBlockEnd
  0
BLOCK
  5
1B4CE
330
1B89A
100
AcDbEntity
  8
0
100
AcDbBlockBegin
  2
_OPEN30
 70
     0
 10
0.0
 20
0.0
 30
0.0
  3
_OPEN30
  1

  0
LINE
  5
1B4D0
330
1B89A
100
AcDbEntity
  8
0
  6
BYBLOCK
 62
     0
100
AcDbLine
 10
-1.0
 20
0.26794919
 30
0.0
 11
0.0
 21
0.0
 31
0.0
  0
LINE
  5
1B4D1
330
1B89A
100
AcDbEntity
  8
0
  6
BYBLOCK
 62
     0
100
AcDbLine
 10
0.0
 20
0.0
 30
0.0
 11
-1.0
 21
-0.26794919
 31
0.0
  0
LINE
  5
1B4D2
330
1B89A
100
AcDbEntity
  8
0
  6
BYBLOCK
 62
     0
100
AcDbLine
 10
0.0
 20
0.0
 30
0.0
 11
-1.0
 21
0.0
 31
0.0
  0
ENDBLK
  5
1B4D3
330
1B89A
100
AcDbEntity
  8
0
100
AcDbBlockEnd
  0
BLOCK
  5
1B4D4
330
1B89B
100
AcDbEntity
  8
0
100
AcDbBlockBegin
  2
GENAXEH
 70
     0
 10
0.0
 20
0.0
 30
0.0
  3
GENAXEH
  1

  0
LINE
  5
1B4D6
330
1B89B
100
AcDbEntity
  8
0
100
AcDbLine
 10
-1.0
 20
0.0
 30
0.0
 11
1.0
 21
0.0
 31
0.0
  0
ENDBLK
  5
1B4D7
330
1B89B
100
AcDbEntity
  8
0
100
AcDbBlockEnd
  0
BLOCK
  5
1B4D8
330
1B89C
100
AcDbEntity
  8
0
100
AcDbBlockBegin
  2
_OPEN
 70
     0
 10
0.0
 20
0.0
 30
0.0
  3
_OPEN
  1

  0
LINE
  5
1B4DA
330
1B89C
100
AcDbEntity
  8
0
  6
BYBLOCK
 62
     0
100
AcDbLine
 10
-1.0
 20
0.1666666666666667
 30
0.0
 11
0.0
 21
0.0
 31
0.0
  0
LINE
  5
1B4DB
330
1B89C
100
AcDbEntity
  8
0
  6
BYBLOCK
 62
     0
100
AcDbLine
 10
-1.0
 20
-0.1666666666666667
 30
0.0
 11
0.0
 21
0.0
 31
0.0
  0
LINE
  5
1B4DC
330
1B89C
100
AcDbEntity
  8
0
  6
BYBLOCK
 62
     0
100
AcDbLine
 10
0.0
 20
0.0
 30
0.0
 11
-1.0
 21
0.0
 31
0.0
  0
ENDBLK
  5
1B4DD
330
1B89C
100
AcDbEntity
  8
0
100
AcDbBlockEnd
  0
BLOCK
  5
1B4DE
330
1B89D
100
AcDbEntity
  8
AM_0
100
AcDbBlockBegin
  2
_SMALL
 70
     0
 10
0.0
 20
0.0
 30
0.0
  3
_SMALL
  1

  0
CIRCLE
  5
1B4E0
330
1B89D
100
AcDbEntity
  8
0
  6
BYBLOCK
 62
     0
100
AcDbCircle
 10
0.0
 20
0.0
 30
0.0
 40
0.25
  0
ENDBLK
  5
1B4E1
330
1B89D
100
AcDbEntity
  8
AM_0
100
AcDbBlockEnd
  0
ENDSEC
  0
SECTION
  2
ENTITIES
  0
TEXT
  5
1B5DE
330
1B896
100
AcDbEntity
  8
WK
100
AcDbText
 10
4966.271788615596
 20
513.3421640467378
 30
0.0
 40
7.0
  1
大栄建材株式会社
 41
0.9
 72
     2
 11
5025.071788615596
 21
513.3421640467378
 31
0.0
100
AcDbText
  0
TEXT
  5
1B5DF
330
1B896
100
AcDbEntity
  8
WK
100
AcDbText
 10
4753.702280221578
 20
-36.2578359532622
 30
0.0
 40
3.2
  1
図名
 41
0.8299999999999998
100
AcDbText
  0
TEXT
  5
1B5E0
330
1B896
100
AcDbEntity
  8
WK
100
AcDbText
 10
4834.899146888245
 20
-48.15783595326207
 30
0.0
 40
4.0
  1
基準図
 41
0.8
100
AcDbText
  0
TEXT
  5
1B5E1
330
1B896
100
AcDbEntity
  8
WK
100
AcDbText
 10
4847.828146888245
 20
-36.2578359532622
 30
0.0
 40
3.2
  1
尺度
 41
0.8299999999999998
100
AcDbText
  0
TEXT
  5
1B5E2
330
1B896
100
AcDbEntity
  8
WK
100
AcDbText
 10
4867.952719393958
 20
-49.2578359532622
 30
0.0
 40
3.2
  1
廃止
 41
0.8299999999999998
100
AcDbText
  0
TEXT
  5
1B5E3
330
1B896
100
AcDbEntity
  8
WK
100
AcDbText
 10
4867.952719393958
 20
-43.2578359532622
 30
0.0
 40
3.2
  1
制定
 41
0.8299999999999998
100
AcDbText
  0
TEXT
  5
1B5E4
330
1B896
100
AcDbEntity
  8
WK
100
AcDbText
 10
4867.952719393958
 20
-37.2578359532622
 30
0.0
 40
3.2
  1
作成
 41
0.8299999999999998
100
AcDbText
  0
TEXT
  5
1B5E5
330
1B896
100
AcDbEntity
  8
WK
100
AcDbText
 10
4909.328146888245
 20
-36.2578359532622
 30
0.0
 40
3.2
  1
作図
 41
0.8299999999999998
100
AcDbText
  0
TEXT
  5
1B5E6
330
1B896
100
AcDbEntity
  8
WK
100
AcDbText
 10
4929.328146888245
 20
-36.2578359532622
 30
0.0
 40
3.2
  1
検図
 41
0.8299999999999998
100
AcDbText
  0
TEXT
  5
1B5E7
330
1B896
100
AcDbEntity
  8
WK
100
AcDbText
 10
4949.202280221578
 20
-36.2578359532622
 30
0.0
 40
3.2
  1
図番
 41
0.8299999999999998
100
AcDbText
  0
TEXT
  5
1B5E8
330
1B896
100
AcDbEntity
  8
WK
100
AcDbText
 10
4853.926956412054
 20
-45.75783630931378
 30
0.0
 40
3.2
  1
1:1
 41
0.8299999999999998
 72
     4
 11
4856.899146888245
 21
-44.15783630931378
 31
0.0
100
AcDbText
  0
CIRCLE
  5
1B5E9
330
1B896
100
AcDbEntity
  8
WK
100
AcDbCircle
 10
5019.208621907555
 20
-41.15783595326207
 30
0.0
 40
6.0
  0
LINE
  5
1B5EA
330
1B896
100
AcDbEntity
  8
WK
100
AcDbLine
 10
5013.208621907555
 20
-41.15783595326207
 30
0.0
 11
5025.208621907555
 21
-41.15783595326207
 31
0.0
  0
LINE
  5
1B5EB
330
1B896
100
AcDbEntity
  8
WK
100
AcDbLine
 10
4866.899146888245
 20
-38.15783595326207
 30
0.0
 11
4906.899146888245
 21
-38.15783595326207
 31
0.0
  0
LINE
  5
1B5EC
330
1B896
100
AcDbEntity
  8
WK
100
AcDbLine
 10
4866.899146888245
 20
-44.15783595326207
 30
0.0
 11
4906.899146888245
 21
-44.15783595326207
 31
0.0
  0
LINE
  5
1B5ED
330
1B896
100
AcDbEntity
  8
WK
100
AcDbLine
 10
4760.899146888244
 20
-40.15783595326207
 30
0.0
 11
4833.899146888246
 21
-40.15783595326207
 31
0.0
  0
LINE
  5
1B5EE
330
1B896
100
AcDbEntity
  8
WK
100
AcDbLine
 10
4751.899146888245
 20
-32.15783595326207
 30
0.0
 11
5026.899146888245
 21
-32.15783595326207
 31
0.0
  0
LINE
  5
1B5EF
330
1B896
100
AcDbEntity
  8
WK
100
AcDbLine
 10
4846.899146888245
 20
-32.15783595326207
 30
0.0
 11
4846.899146888245
 21
-50.15783595326207
 31
0.0
  0
LINE
  5
1B5F0
330
1B896
100
AcDbEntity
  8
WK
100
AcDbLine
 10
4866.899146888245
 20
-32.15783595326207
 30
0.0
 11
4866.899146888245
 21
-50.15783595326207
 31
0.0
  0
LINE
  5
1B5F1
330
1B896
100
AcDbEntity
  8
WK
100
AcDbLine
 10
4926.899146888246
 20
-32.15783595326207
 30
0.0
 11
4926.899146888246
 21
-50.15783595326207
 31
0.0
  0
LINE
  5
1B5F2
330
1B896
100
AcDbEntity
  8
WK
100
AcDbLine
 10
4906.899146888245
 20
-32.15783595326207
 30
0.0
 11
4906.899146888245
 21
-50.15783595326207
 31
0.0
  0
LINE
  5
1B5F3
330
1B896
100
AcDbEntity
  8
WK
100
AcDbLine
 10
4751.899146888245
 20
-32.15783595326207
 30
0.0
 11
4751.899146888245
 21
-50.15783595326207
 31
0.0
  0
LINE
  5
1B5F4
330
1B896
100
AcDbEntity
  8
WK
100
AcDbLine
 10
4946.899146888245
 20
-32.15783595326207
 30
0.0
 11
4946.899146888245
 21
-50.15783595326207
 31
0.0
  0
TEXT
  5
1B5F5
330
1B896
100
AcDbEntity
  8
WK
100
AcDbText
 10
4231.899146888244
 20
-50.15783595326207
 30
0.0
 40
3.2
  1
A1
 50
90.0
 41
0.8299999999999998
100
AcDbText
  0
LINE
  5
1B5F6
330
1B896
100
AcDbEntity
  8
WK
100
AcDbLine
 10
5026.899146888245
 20
511.3421640467378
 30
0.0
 11
5026.899146888245
 21
-50.15783595326207
 31
0.0
  0
LINE
  5
1B5F7
330
1B896
100
AcDbEntity
  8
WK
100
AcDbLine
 10
4232.899146888245
 20
511.3421640467378
 30
0.0
 11
4232.899146888245
 21
-50.15783595326207
 31
0.0
  0
LINE
  5
1B5F8
330
1B896
100
AcDbEntity
  8
WK
100
AcDbLine
 10
4232.899146888245
 20
511.3421640467378
 30
0.0
 11
5026.899146888245
 21
511.3421640467378
 31
0.0
  0
LINE
  5
1B5F9
330
1B896
100
AcDbEntity
  8
WK
100
AcDbLine
 10
4232.899146888245
 20
-50.15783595326207
 30
0.0
 11
5026.899146888245
 21
-50.15783595326207
 31
0.0
  0
TEXT
  5
1C396
330
1B896
100
AcDbEntity
  8
AM_5
100
AcDbText
 10
4298.707735368052
 20
250.6176055872817
 30
0.0
 40
6.0
  1
CH
 41
0.9
100
AcDbText
  0
LINE
  5
1C397
330
1B896
100
AcDbEntity
  8
AM_5
100
AcDbLine
 10
4304.455355198397
 20
265.7989711666564
 30
0.0
 11
4309.102110084472
 21
257.7505556136565
 31
0.0
  0
LINE
  5
1C398
330
1B896
100
AcDbEntity
  8
AM_5
100
AcDbLine
 10
4299.808600312323
 20
257.7505556136565
 30
0.0
 11
4309.102110084472
 21
257.7505556136565
 31
0.0
  0
LINE
  5
1C399
330
1B896
100
AcDbEntity
  8
AM_5
100
AcDbLine
 10
4304.455355198397
 20
265.7989711666564
 30
0.0
 11
4299.808600312323
 21
257.7505556136565
 31
0.0
  0
LINE
  5
1C39A
330
1B896
100
AcDbEntity
  8
OS
 62
     2
100
AcDbLine
 10
4623.5880608499
 20
217.1342101336199
 30
0.0
 11
4637.141000134762
 21
203.5812708487583
 31
0.0
  0
LINE
  5
1C39B
330
1B896
100
AcDbEntity
  8
OS
 62
     2
100
AcDbLine
 10
4988.641018751663
 20
238.5812708487583
 30
0.0
 11
4953.641018751663
 21
203.5812708487583
 31
0.0
  0
LINE
  5
1C39C
330
1B896
100
AcDbEntity
  8
OS
 62
     2
100
AcDbLine
 10
4953.641018751663
 20
308.5812708487583
 30
0.0
 11
4998.641018751663
 21
263.5812708487583
 31
0.0
  0
LINE
  5
1C39D
330
1B896
100
AcDbEntity
  8
OS
 62
     2
100
AcDbLine
 10
4637.141000134762
 20
308.5812708487583
 30
0.0
 11
4592.141000134762
 21
263.5812708487583
 31
0.0
  0
LINE
  5
1C39E
330
1B896
100
AcDbEntity
  8
OS
 62
     2
100
AcDbLine
 10
4592.641000134761
 20
248.5812708487583
 30
0.0
 11
4599.187741046696
 21
242.034529936825
 31
0.0
  0
LINE
  5
1C39F
330
1B896
100
AcDbEntity
  8
OS
 62
     2
100
AcDbLine
 10
4326.441424627448
 20
302.2989711666564
 30
0.0
 11
4375.561680815599
 21
327.8343901971969
 31
0.0
  0
LINE
  5
1C3A0
330
1B896
100
AcDbEntity
  8
OS
 62
     2
100
AcDbLine
 10
4326.441424627448
 20
456.7813745834904
 30
0.0
 11
4375.561680815599
 21
482.3167936140308
 31
0.0
  0
TEXT
  5
1C3A1
330
1B896
100
AcDbEntity
  8
AM_5
100
AcDbText
 10
4299.853601158352
 20
-5.607702309711839
 30
0.0
 40
6.0
  1
FL
 41
0.9
100
AcDbText
  0
LINE
  5
1C3A2
330
1B896
100
AcDbEntity
  8
AM_5
100
AcDbLine
 10
4304.455355198397
 20
-14.70102883334357
 30
0.0
 11
4309.102110084472
 21
-6.65261328034353
 31
0.0
  0
LINE
  5
1C3A3
330
1B896
100
AcDbEntity
  8
AM_5
100
AcDbLine
 10
4299.808600312323
 20
-6.65261328034353
 30
0.0
 11
4309.102110084472
 21
-6.65261328034353
 31
0.0
  0
LINE
  5
1C3A4
330
1B896
100
AcDbEntity
  8
AM_5
100
AcDbLine
 10
4304.455355198397
 20
-14.70102883334357
 30
0.0
 11
4299.808600312323
 21
-6.65261328034353
 31
0.0
  0
LINE
  5
1C3A5
330
1B896
100
AcDbEntity
  8
OS
 62
     2
100
AcDbLine
 10
4526.941424627448
 20
-24.30102883334359
 30
0.0
 11
4277.467893300594
 21
-24.30102883334359
 31
0.0
  0
LINE
  5
1C3A6
330
1B896
100
AcDbEntity
  8
OS
 62
     2
100
AcDbLine
 10
4526.941424627448
 20
-21.9010288333435
 30
0.0
 11
4277.467893300594
 21
-21.9010288333435
 31
0.0
  0
LINE
  5
1C3A7
330
1B896
100
AcDbEntity
  8
OS
 62
     2
100
AcDbLine
 10
4526.941424627448
 20
-19.50102883334364
 30
0.0
 11
4277.467893300594
 21
-19.50102883334364
 31
0.0
  0
LINE
  5
1C3A8
330
1B896
100
AcDbEntity
  8
OS
 62
     2
100
AcDbLine
 10
4526.941424627448
 20
-17.10102883334355
 30
0.0
 11
4277.467893300594
 21
-17.10102883334355
 31
0.0
  0
LINE
  5
1C3A9
330
1B896
100
AcDbEntity
  8
OS
 62
     2
100
AcDbLine
 10
4526.941424627448
 20
-26.70102883334357
 30
0.0
 11
4277.467893300594
 21
-26.70102883334357
 31
0.0
  0
LINE
  5
1C3AA
330
1B896
100
AcDbEntity
  8
OS
 62
     2
100
AcDbLine
 10
4526.941424627448
 20
-14.70102883334357
 30
0.0
 11
4277.467893300594
 21
-14.70102883334357
 31
0.0
  0
LINE
  5
1C3AB
330
1B896
100
AcDbEntity
  8
OS
 62
     2
100
AcDbLine
 10
4313.941424627448
 20
265.7989711666564
 30
0.0
 11
4313.941424627448
 21
-14.70102883334357
 31
0.0
  0
LINE
  5
1C3AC
330
1B896
100
AcDbEntity
  8
OS
  6
DASHED1
 62
     2
100
AcDbLine
 10
4500.361551756171
 20
278.2989711666564
 30
0.0
 11
4520.273953960152
 21
278.2989711666564
 31
0.0
  0
LINE
  5
1C3AD
330
1B896
100
AcDbEntity
  8
OS
  6
DASHED1
 62
     2
100
AcDbLine
 10
4431.441424627448
 20
278.2989711666564
 30
0.0
 11
4483.535425688287
 21
278.2989711666564
 31
0.0
  0
LINE
  5
1C3AE
330
1B896
100
AcDbEntity
  8
OS
  6
DASHED1
 62
     2
100
AcDbLine
 10
4431.441424627447
 20
432.7813745866564
 30
0.0
 11
4515.273953960152
 21
432.7813745866564
 31
0.0
  0
LINE
  5
1C3AF
330
1B896
100
AcDbEntity
  8
OS
  6
DASHED1
 62
     2
100
AcDbLine
 10
4443.941424627448
 20
420.2813745666564
 30
0.0
 11
4515.273953960152
 21
420.2813745666564
 31
0.0
  0
LINE
  5
1C3B0
330
1B896
100
AcDbEntity
  8
OS
  6
DASHED1
 62
     2
100
AcDbLine
 10
4443.941424627448
 20
265.7989711666564
 30
0.0
 11
4520.273953960152
 21
265.7989711666564
 31
0.0
  0
LINE
  5
1C3B1
330
1B896
100
AcDbEntity
  8
OS
  6
DASHED1
 62
     2
100
AcDbLine
 10
4313.941424627448
 20
265.7989711634904
 30
0.0
 11
4277.467893300594
 21
265.7989711634904
 31
0.0
  0
LINE
  5
1C3B2
330
1B896
100
AcDbEntity
  8
OS
  6
DASHED1
 62
     2
100
AcDbLine
 10
4313.941424627448
 20
278.2989711834904
 30
0.0
 11
4277.467893300594
 21
278.2989711834904
 31
0.0
  0
LINE
  5
1C3B3
330
1B896
100
AcDbEntity
  8
OS
  6
DASHED1
 62
     2
100
AcDbLine
 10
4313.941424627448
 20
420.2813745834903
 30
0.0
 11
4277.467893300594
 21
420.2813745834903
 31
0.0
  0
LINE
  5
1C3B4
330
1B896
100
AcDbEntity
  8
OS
  6
DASHED1
 62
     2
100
AcDbLine
 10
4313.941424627448
 20
432.7813745834903
 30
0.0
 11
4277.467893300594
 21
432.7813745834903
 31
0.0
  0
LINE
  5
1C3B5
330
1B896
100
AcDbEntity
  8
OS
 62
     2
100
AcDbLine
 10
4431.441424627448
 20
456.7813745834904
 30
0.0
 11
4326.441424627448
 21
456.7813745834904
 31
0.0
  0
LINE
  5
1C3B6
330
1B896
100
AcDbEntity
  8
OS
 62
     2
100
AcDbLine
 10
4431.441424627448
 20
302.2989711666564
 30
0.0
 11
4326.441424627448
 21
302.2989711666564
 31
0.0
  0
LINE
  5
1C3B7
330
1B896
100
AcDbEntity
  8
OS
 62
     2
100
AcDbLine
 10
4443.941424627448
 20
359.7362767045207
 30
0.0
 11
4443.941424627448
 21
420.2813745834903
 31
0.0
  0
LINE
  5
1C3B8
330
1B896
100
AcDbEntity
  8
OS
 62
     2
100
AcDbLine
 10
4443.941424627448
 20
420.2813745834903
 30
0.0
 11
4431.441424627448
 21
420.2813745834903
 31
0.0
  0
LINE
  5
1C3BA
330
1B896
100
AcDbEntity
  8
OS
 62
     2
100
AcDbLine
 10
4383.941424627447
 20
420.2813745834903
 30
0.0
 11
4313.941424627448
 21
420.2813745834903
 31
0.0
  0
LINE
  5
1C3BB
330
1B896
100
AcDbEntity
  8
OS
 62
     2
100
AcDbLine
 10
4383.941424627447
 20
432.7813745834903
 30
0.0
 11
4313.941424627448
 21
432.7813745834903
 31
0.0
  0
LINE
  5
1C3BC
330
1B896
100
AcDbEntity
  8
OS
 62
     2
100
AcDbLine
 10
4431.441424627448
 20
420.2813745834903
 30
0.0
 11
4431.441424627448
 21
487.3577179106351
 31
0.0
  0
LINE
  5
1C3BD
330
1B896
100
AcDbEntity
  8
OS
 62
     2
100
AcDbLine
 10
4326.441424627448
 20
432.7813745834903
 30
0.0
 11
4326.441424627448
 21
487.3577179106351
 31
0.0
  0
LINE
  5
1C3BE
330
1B896
100
AcDbEntity
  8
OS
 62
     2
100
AcDbLine
 10
4443.941424627448
 20
420.2813745834903
 30
0.0
 11
4443.941424627448
 21
487.3577179106351
 31
0.0
  0
LINE
  5
1C3BF
330
1B896
100
AcDbEntity
  8
OS
 62
     2
100
AcDbLine
 10
4443.941424627448
 20
265.7989711666564
 30
0.0
 11
4431.441424627448
 21
265.7989711666564
 31
0.0
  0
LINE
  5
1C3C1
330
1B896
100
AcDbEntity
  8
OS
 62
     2
100
AcDbLine
 10
4383.941424627447
 20
265.7989711666564
 30
0.0
 11
4313.941424627448
 21
265.7989711666564
 31
0.0
  0
LINE
  5
1C3C2
330
1B896
100
AcDbEntity
  8
OS
 62
     2
100
AcDbLine
 10
4383.941424627447
 20
278.2989711666564
 30
0.0
 11
4313.941424627448
 21
278.2989711666564
 31
0.0
  0
LINE
  5
1C3C3
330
1B896
100
AcDbEntity
  8
OS
 62
     2
100
AcDbLine
 10
4431.441424627448
 20
265.7989711666564
 30
0.0
 11
4431.441424627448
 21
327.1180279169907
 31
0.0
  0
LINE
  5
1C3C4
330
1B896
100
AcDbEntity
  8
OS
 62
     2
100
AcDbLine
 10
4326.441424627448
 20
278.2989711666564
 30
0.0
 11
4326.441424627448
 21
327.1180279169907
 31
0.0
  0
LINE
  5
1C3C5
330
1B896
100
AcDbEntity
  8
OS
 62
     2
100
AcDbLine
 10
4443.941424627448
 20
265.2989714645564
 30
0.0
 11
4443.941424627448
 21
327.1180279169907
 31
0.0
  0
LINE
  5
1C3C6
330
1B896
100
AcDbEntity
  8
OS
 62
     2
100
AcDbLine
 10
4313.941424627448
 20
265.7989711666564
 30
0.0
 11
4313.941424627448
 21
327.1180279169907
 31
0.0
  0
LINE
  5
1C3C7
330
1B896
100
AcDbEntity
  8
OS
 62
     2
100
AcDbLine
 10
4313.941424627448
 20
359.7362767045207
 30
0.0
 11
4313.941424627448
 21
420.2813745834903
 31
0.0
  0
TEXT
  5
1C3C8
330
1B896
100
AcDbEntity
  8
MJ
100
AcDbText
 10
4266.899766049693
 20
490.551276813407
 30
0.0
 40
8.0
  1
■ソフトクローズ部
100
AcDbText
  0
LINE
  5
1C3C9
330
1B896
100
AcDbEntity
  8
OS
 62
     2
100
AcDbLine
 10
4418.941424627448
 20
407.2813745834904
 30
0.0
 11
4418.941424627448
 21
420.2813745834895
 31
0.0
  0
LINE
  5
1C3CA
330
1B896
100
AcDbEntity
  8
AM_0
100
AcDbLine
 10
4427.941424627448
 20
407.2813745834904
 30
0.0
 11
4427.941424627448
 21
359.7362767045207
 31
0.0
  0
LINE
  5
1C3CB
330
1B896
100
AcDbEntity
  8
AM_0
100
AcDbLine
 10
4387.941424627448
 20
407.2813745834904
 30
0.0
 11
4387.941424627448
 21
359.7362767045207
 31
0.0
  0
LINE
  5
1C3CC
330
1B896
100
AcDbEntity
  8
OS
 62
     2
100
AcDbLine
 10
4383.941424627447
 20
420.2813745834895
 30
0.0
 11
4383.941424627447
 21
359.7362767045207
 31
0.0
  0
LINE
  5
1C3CD
330
1B896
100
AcDbEntity
  8
TS
100
AcDbLine
 10
4402.941424627448
 20
417.7813745834903
 30
0.0
 11
4412.941424627448
 21
417.7813745834903
 31
0.0
  0
LINE
  5
1C3CE
330
1B896
100
AcDbEntity
  8
TS
100
AcDbLine
 10
4412.941424627448
 20
420.2813745834895
 30
0.0
 11
4412.941424627448
 21
414.7813745834903
 31
0.0
  0
LINE
  5
1C3CF
330
1B896
100
AcDbEntity
  8
TS
100
AcDbLine
 10
4402.941424627448
 20
420.2813745834895
 30
0.0
 11
4402.941424627448
 21
414.7813745834903
 31
0.0
  0
LINE
  5
1C3D0
330
1B896
100
AcDbEntity
  8
TS
100
AcDbLine
 10
4410.986424627448
 20
407.7813745834903
 30
0.0
 11
4410.986424627448
 21
414.7813745834903
 31
0.0
  0
LINE
  5
1C3D1
330
1B896
100
AcDbEntity
  8
TS
100
AcDbLine
 10
4404.896424627447
 20
414.7813745834903
 30
0.0
 11
4404.896424627447
 21
407.7813745834903
 31
0.0
  0
LINE
  5
1C3D2
330
1B896
100
AcDbEntity
  8
TS
100
AcDbLine
 10
4410.986424627448
 20
407.7813745834903
 30
0.0
 11
4404.896424627447
 21
407.7813745834903
 31
0.0
  0
LINE
  5
1C3D3
330
1B896
100
AcDbEntity
  8
TS
100
AcDbLine
 10
4402.941424627448
 20
414.7813745834903
 30
0.0
 11
4412.941424627448
 21
414.7813745834903
 31
0.0
  0
LINE
  5
1C3D4
330
1B896
100
AcDbEntity
  8
TS
100
AcDbLine
 10
4409.341424627448
 20
405.7813745834904
 30
0.0
 11
4406.672431337148
 21
405.7813745834904
 31
0.0
  0
LINE
  5
1C3D5
330
1B896
100
AcDbEntity
  8
TS
100
AcDbLine
 10
4406.672431337148
 20
405.7813745834904
 30
0.0
 11
4406.541424627448
 21
405.7813745834904
 31
0.0
  0
LINE
  5
1C3D6
330
1B896
100
AcDbEntity
  8
TS
100
AcDbLine
 10
4406.041424627448
 20
406.2813745834904
 30
0.0
 11
4406.219219447748
 21
406.2813745834904
 31
0.0
  0
LINE
  5
1C3D7
330
1B896
100
AcDbEntity
  8
TS
100
AcDbLine
 10
4406.219219447748
 20
406.2813745834904
 30
0.0
 11
4409.841424627447
 21
406.2813745834904
 31
0.0
  0
LINE
  5
1C3D8
330
1B896
100
AcDbEntity
  8
TS
100
AcDbLine
 10
4405.181364220948
 20
407.7813745834903
 30
0.0
 11
4404.896424627447
 21
407.7813745834903
 31
0.0
  0
LINE
  5
1C3D9
330
1B896
100
AcDbEntity
  8
TS
100
AcDbLine
 10
4409.341424627448
 20
405.7813745834904
 30
0.0
 11
4409.841424627447
 21
406.2813745834904
 31
0.0
  0
LINE
  5
1C3DA
330
1B896
100
AcDbEntity
  8
TS
100
AcDbLine
 10
4406.041424627448
 20
406.2813745834904
 30
0.0
 11
4406.541424627448
 21
405.7813745834904
 31
0.0
  0
LINE
  5
1C3DB
330
1B896
100
AcDbEntity
  8
TS
100
AcDbLine
 10
4409.841424627447
 20
406.2813745834904
 30
0.0
 11
4409.841424627447
 21
407.7813745834903
 31
0.0
  0
LINE
  5
1C3DC
330
1B896
100
AcDbEntity
  8
TS
100
AcDbLine
 10
4406.041424627448
 20
407.7813745834903
 30
0.0
 11
4406.041424627448
 21
406.2813745834904
 31
0.0
  0
ARC
  5
1C3DD
330
1B896
100
AcDbEntity
  8
TS
100
AcDbCircle
 10
4420.341424627447
 20
436.7813745834904
 30
0.0
 40
0.5
100
AcDbArc
 50
0.0
 51
90.0
  0
LINE
  5
1C3DE
330
1B896
100
AcDbEntity
  8
TS
100
AcDbLine
 10
4414.841424627447
 20
437.2813745834903
 30
0.0
 11
4420.341424627447
 21
437.2813745834903
 31
0.0
  0
LINE
  5
1C3DF
330
1B896
100
AcDbEntity
  8
TS
100
AcDbLine
 10
4420.841424627448
 20
436.7813745834904
 30
0.0
 11
4420.841424627448
 21
428.2813745834904
 31
0.0
  0
ARC
  5
1C3E0
330
1B896
100
AcDbEntity
  8
TS
100
AcDbCircle
 10
4420.341424627447
 20
424.7813745834903
 30
0.0
 40
0.5
100
AcDbArc
 50
270.0
 51
0.0
  0
LINE
  5
1C3E1
330
1B896
100
AcDbEntity
  8
TS
100
AcDbLine
 10
4420.841424627448
 20
428.2813745834904
 30
0.0
 11
4414.841424627447
 21
428.2813745834904
 31
0.0
  0
LINE
  5
1C3E2
330
1B896
100
AcDbEntity
  8
TS
100
AcDbLine
 10
4420.841424627448
 20
428.2813745834904
 30
0.0
 11
4420.841424627448
 21
424.7813745834903
 31
0.0
  0
LINE
  5
1C3E3
330
1B896
100
AcDbEntity
  8
TS
100
AcDbLine
 10
4420.841424627448
 20
424.2813745834904
 30
0.0
 11
4414.841424627447
 21
424.2813745834904
 31
0.0
  0
LINE
  5
1C3E4
330
1B896
100
AcDbEntity
  8
TS
100
AcDbLine
 10
4420.841424627448
 20
420.7813745834903
 30
0.0
 11
4420.841424627448
 21
424.2813745834904
 31
0.0
  0
ARC
  5
1C3E5
330
1B896
100
AcDbEntity
  8
TS
100
AcDbCircle
 10
4420.341424627447
 20
420.7813745834903
 30
0.0
 40
0.5
100
AcDbArc
 50
270.0
 51
0.0
  0
ARC
  5
1C3E6
330
1B896
100
AcDbEntity
  8
TS
100
AcDbCircle
 10
4395.541424627448
 20
436.7813745834904
 30
0.0
 40
0.5
100
AcDbArc
 50
90.0
 51
180.0
  0
LINE
  5
1C3E7
330
1B896
100
AcDbEntity
  8
TS
100
AcDbLine
 10
4395.541424627448
 20
437.2813745834903
 30
0.0
 11
4401.041424627448
 21
437.2813745834903
 31
0.0
  0
LINE
  5
1C3E8
330
1B896
100
AcDbEntity
  8
TS
100
AcDbLine
 10
4395.041424627448
 20
436.7813745834904
 30
0.0
 11
4395.041424627448
 21
428.2813745834904
 31
0.0
  0
LINE
  5
1C3E9
330
1B896
100
AcDbEntity
  8
TS
100
AcDbLine
 10
4401.041424627448
 20
437.2813745834903
 30
0.0
 11
4414.841424627447
 21
437.2813745834903
 31
0.0
  0
ARC
  5
1C3EA
330
1B896
100
AcDbEntity
  8
TS
100
AcDbCircle
 10
4395.541424627448
 20
424.7813745834903
 30
0.0
 40
0.5
100
AcDbArc
 50
180.0
 51
270.0
  0
LINE
  5
1C3EB
330
1B896
100
AcDbEntity
  8
TS
100
AcDbLine
 10
4401.041424627448
 20
428.2813745834904
 30
0.0
 11
4395.041424627448
 21
428.2813745834904
 31
0.0
  0
LINE
  5
1C3EC
330
1B896
100
AcDbEntity
  8
TS
100
AcDbLine
 10
4395.041424627448
 20
428.2813745834904
 30
0.0
 11
4395.041424627448
 21
424.7813745834903
 31
0.0
  0
LINE
  5
1C3ED
330
1B896
100
AcDbEntity
  8
TS
100
AcDbLine
 10
4414.841424627447
 20
428.2813745834904
 30
0.0
 11
4401.041424627448
 21
428.2813745834904
 31
0.0
  0
ARC
  5
1C3EE
330
1B896
100
AcDbEntity
  8
TS
100
AcDbCircle
 10
4395.541424627448
 20
420.7813745834903
 30
0.0
 40
0.5
100
AcDbArc
 50
180.0
 51
270.0
  0
LINE
  5
1C3EF
330
1B896
100
AcDbEntity
  8
TS
100
AcDbLine
 10
4401.041424627448
 20
424.2813745834904
 30
0.0
 11
4395.041424627448
 21
424.2813745834904
 31
0.0
  0
LINE
  5
1C3F0
330
1B896
100
AcDbEntity
  8
TS
100
AcDbLine
 10
4395.041424627448
 20
420.7813745834903
 30
0.0
 11
4395.041424627448
 21
424.2813745834904
 31
0.0
  0
LINE
  5
1C3F1
330
1B896
100
AcDbEntity
  8
TS
100
AcDbLine
 10
4414.841424627447
 20
424.2813745834904
 30
0.0
 11
4401.041424627448
 21
424.2813745834904
 31
0.0
  0
LINE
  5
1C3F2
330
1B896
100
AcDbEntity
  8
TS
100
AcDbLine
 10
4414.941424627448
 20
411.2670152294904
 30
0.0
 11
4400.941424627448
 21
411.2670152294904
 31
0.0
  0
LINE
  5
1C3F3
330
1B896
100
AcDbEntity
  8
TS
100
AcDbLine
 10
4396.643158695048
 20
412.2813745834903
 30
0.0
 11
4396.643158695048
 21
411.2813745834904
 31
0.0
  0
ARC
  5
1C3F4
330
1B896
100
AcDbEntity
  8
TS
100
AcDbCircle
 10
4397.287275445048
 20
412.2814025093904
 30
0.0
 40
0.4999720748907138
100
AcDbArc
 50
90.00320060751187
 51
180.0032002499967
  0
LINE
  5
1C3F5
330
1B896
100
AcDbEntity
  8
TS
100
AcDbLine
 10
4397.287247516048
 20
412.7813745834903
 30
0.0
 11
4398.011288746648
 21
412.7813745834903
 31
0.0
  0
LINE
  5
1C3F6
330
1B896
100
AcDbEntity
  8
TS
100
AcDbLine
 10
4398.011288746648
 20
412.7813745834903
 30
0.0
 11
4402.777009722249
 21
412.7813745834903
 31
0.0
  0
ARC
  5
1C3F7
330
1B896
100
AcDbEntity
  8
TS
100
AcDbCircle
 10
4397.143130769148
 20
412.2814025093904
 30
0.0
 40
0.4999720748904047
100
AcDbArc
 50
90.00320060751187
 51
180.0032002499967
  0
LINE
  5
1C3F8
330
1B896
100
AcDbEntity
  8
TS
100
AcDbLine
 10
4397.143102840148
 20
412.7813745834903
 30
0.0
 11
4397.287247516048
 21
412.7813745834903
 31
0.0
  0
LINE
  5
1C3F9
330
1B896
100
AcDbEntity
  8
TS
100
AcDbLine
 10
4402.777009722249
 20
412.7813745834903
 30
0.0
 11
4417.775334075348
 21
412.7813745834903
 31
0.0
  0
ARC
  5
1C3FA
330
1B896
100
AcDbEntity
  8
TS
100
AcDbCircle
 10
4418.267776886647
 20
412.2814025093904
 30
0.0
 40
0.4999720748906001
100
AcDbArc
 50
359.9967997500032
 51
89.99679939248812
  0
LINE
  5
1C3FB
330
1B896
100
AcDbEntity
  8
TS
100
AcDbLine
 10
4417.775334075348
 20
412.7813745834903
 30
0.0
 11
4418.267804815648
 21
412.7813745834903
 31
0.0
  0
LINE
  5
1C3FC
330
1B896
100
AcDbEntity
  8
TS
100
AcDbLine
 10
4418.767748960749
 20
412.2813745834903
 30
0.0
 11
4418.767748960749
 21
411.2813745834904
 31
0.0
  0
LINE
  5
1C3FD
330
1B896
100
AcDbEntity
  8
TS
100
AcDbLine
 10
4400.941424627448
 20
373.2813745834903
 30
0.0
 11
4395.941424627448
 21
373.2813745834903
 31
0.0
  0
ARC
  5
1C3FE
330
1B896
100
AcDbEntity
  8
TS
100
AcDbCircle
 10
4395.941424627448
 20
374.2813745834903
 30
0.0
 40
1.0
100
AcDbArc
 50
180.0
 51
270.0
  0
ARC
  5
1C3FF
330
1B896
100
AcDbEntity
  8
TS
100
AcDbCircle
 10
4396.541424627448
 20
409.6813745834904
 30
0.0
 40
1.600000000000022
100
AcDbArc
 50
98.21321070172283
 51
180.0
  0
LINE
  5
1C400
330
1B896
100
AcDbEntity
  8
TS
100
AcDbLine
 10
4400.941424627448
 20
411.2649638932904
 30
0.0
 11
4396.312853198848
 21
411.2649638932904
 31
0.0
  0
LINE
  5
1C401
330
1B896
100
AcDbEntity
  8
TS
100
AcDbLine
 10
4394.941424627448
 20
409.6813745834904
 30
0.0
 11
4394.941424627448
 21
374.2813745834903
 31
0.0
  0
LINE
  5
1C402
330
1B896
100
AcDbEntity
  8
TS
100
AcDbLine
 10
4414.941424627448
 20
373.2813745834903
 30
0.0
 11
4400.941424627448
 21
373.2813745834903
 31
0.0
  0
ARC
  5
1C403
330
1B896
100
AcDbEntity
  8
TS
100
AcDbCircle
 10
4419.941424627448
 20
374.2813745834903
 30
0.0
 40
1.0
100
AcDbArc
 50
270.0
 51
0.0
  0
LINE
  5
1C404
330
1B896
100
AcDbEntity
  8
TS
100
AcDbLine
 10
4419.941424627448
 20
373.2813745834903
 30
0.0
 11
4414.941424627448
 21
373.2813745834903
 31
0.0
  0
LINE
  5
1C405
330
1B896
100
AcDbEntity
  8
TS
100
AcDbLine
 10
4420.941424627448
 20
409.6813745834904
 30
0.0
 11
4420.941424627448
 21
374.2813745834903
 31
0.0
  0
LINE
  5
1C406
330
1B896
100
AcDbEntity
  8
TS
100
AcDbLine
 10
4419.56999605605
 20
411.2649638932904
 30
0.0
 11
4414.941424627448
 21
411.2649638932904
 31
0.0
  0
ARC
  5
1C407
330
1B896
100
AcDbEntity
  8
TS
100
AcDbCircle
 10
4419.341424627448
 20
409.6813745834904
 30
0.0
 40
1.600000000000022
100
AcDbArc
 50
0.0
 51
81.78678929827716
  0
LINE
  5
1C408
330
1B896
100
AcDbEntity
  8
TS
100
AcDbLine
 10
4400.941424627448
 20
411.2670152294904
 30
0.0
 11
4400.941424627448
 21
411.2649638932904
 31
0.0
  0
LINE
  5
1C409
330
1B896
100
AcDbEntity
  8
TS
100
AcDbLine
 10
4396.341424627448
 20
411.2670152294904
 30
0.0
 11
4396.312853198848
 21
411.2649638932904
 31
0.0
  0
LINE
  5
1C40A
330
1B896
100
AcDbEntity
  8
TS
100
AcDbLine
 10
4419.541424627449
 20
411.2670152294904
 30
0.0
 11
4419.56999605605
 21
411.2649638932904
 31
0.0
  0
LINE
  5
1C40B
330
1B896
100
AcDbEntity
  8
TS
100
AcDbLine
 10
4396.641424627448
 20
411.2813745834904
 30
0.0
 11
4396.641424627448
 21
411.2649638932904
 31
0.0
  0
LINE
  5
1C40C
330
1B896
100
AcDbEntity
  8
TS
100
AcDbLine
 10
4396.641424627448
 20
411.2813745834904
 30
0.0
 11
4400.941424627448
 21
411.2813745834904
 31
0.0
  0
LINE
  5
1C40D
330
1B896
100
AcDbEntity
  8
TS
100
AcDbLine
 10
4400.941424627448
 20
411.2813745834904
 30
0.0
 11
4414.941424627448
 21
411.2813745834904
 31
0.0
  0
LINE
  5
1C40E
330
1B896
100
AcDbEntity
  8
TS
100
AcDbLine
 10
4419.241424627449
 20
411.2813745834904
 30
0.0
 11
4419.241424627449
 21
411.2649638932904
 31
0.0
  0
LINE
  5
1C40F
330
1B896
100
AcDbEntity
  8
TS
100
AcDbLine
 10
4414.941424627448
 20
411.2813745834904
 30
0.0
 11
4419.241424627449
 21
411.2813745834904
 31
0.0
  0
LINE
  5
1C410
330
1B896
100
AcDbEntity
  8
TS
100
AcDbLine
 10
4396.541424627448
 20
411.2813745834904
 30
0.0
 11
4396.312853198848
 21
411.2649638932904
 31
0.0
  0
LINE
  5
1C411
330
1B896
100
AcDbEntity
  8
TS
100
AcDbLine
 10
4396.541424627448
 20
411.2813745834904
 30
0.0
 11
4396.641424627448
 21
411.2813745834904
 31
0.0
  0
LINE
  5
1C412
330
1B896
100
AcDbEntity
  8
TS
100
AcDbLine
 10
4394.941424627448
 20
373.2813745834903
 30
0.0
 11
4394.941424627448
 21
374.2813745834903
 31
0.0
  0
LINE
  5
1C413
330
1B896
100
AcDbEntity
  8
TS
100
AcDbLine
 10
4395.941424627448
 20
373.2813745834903
 30
0.0
 11
4394.941424627448
 21
373.2813745834903
 31
0.0
  0
LINE
  5
1C414
330
1B896
100
AcDbEntity
  8
TS
100
AcDbLine
 10
4419.56999605605
 20
411.2649638932904
 30
0.0
 11
4419.341424627448
 21
411.2813745834904
 31
0.0
  0
LINE
  5
1C415
330
1B896
100
AcDbEntity
  8
TS
100
AcDbLine
 10
4419.241424627449
 20
411.2813745834904
 30
0.0
 11
4419.341424627448
 21
411.2813745834904
 31
0.0
  0
LINE
  5
1C416
330
1B896
100
AcDbEntity
  8
TS
100
AcDbLine
 10
4420.941424627448
 20
374.2813745834903
 30
0.0
 11
4420.941424627448
 21
373.2813745834903
 31
0.0
  0
LINE
  5
1C417
330
1B896
100
AcDbEntity
  8
TS
100
AcDbLine
 10
4420.941424627448
 20
373.2813745834903
 30
0.0
 11
4419.941424627448
 21
373.2813745834903
 31
0.0
  0
LINE
  5
1C418
330
1B896
100
AcDbEntity
  8
AM_0
100
AcDbLine
 10
4427.941424627448
 20
407.2813745834904
 30
0.0
 11
4387.941424627448
 21
407.2813745834904
 31
0.0
  0
LINE
  5
1C419
330
1B896
100
AcDbEntity
  8
TS
100
AcDbLine
 10
4407.941424627447
 20
440.521944498147
 30
0.0
 11
4407.941424627447
 21
372.987024015296
 31
0.0
  0
LINE
  5
1C41A
330
1B896
100
AcDbEntity
  8
AM_0
100
AcDbLine
 10
4383.941424627447
 20
444.2813745834895
 30
0.0
 11
4430.941424627448
 21
444.2813745834895
 31
0.0
  0
LINE
  5
1C41B
330
1B896
100
AcDbEntity
  8
AM_0
100
AcDbLine
 10
4383.941424627447
 20
420.2813745834895
 30
0.0
 11
4428.941424627448
 21
420.2813745834895
 31
0.0
  0
LINE
  5
1C41C
330
1B896
100
AcDbEntity
  8
AM_0
100
AcDbLine
 10
4383.941424627447
 20
444.2813745834895
 30
0.0
 11
4383.941424627447
 21
420.2813745834895
 31
0.0
  0
LINE
  5
1C41D
330
1B896
100
AcDbEntity
  8
AM_0
100
AcDbLine
 10
4428.941424627448
 20
420.2813745834895
 30
0.0
 11
4430.941424627448
 21
422.2813745834895
 31
0.0
  0
LINE
  5
1C41E
330
1B896
100
AcDbEntity
  8
AM_0
100
AcDbLine
 10
4430.941424627448
 20
422.2813745834895
 30
0.0
 11
4430.941424627448
 21
444.2813745834895
 31
0.0
  0
LINE
  5
1C41F
330
1B896
100
AcDbEntity
  8
OS
 62
     2
100
AcDbLine
 10
4418.941424627448
 20
252.7989711666564
 30
0.0
 11
4418.941424627448
 21
255.7989711666564
 31
0.0
  0
LINE
  5
1C420
330
1B896
100
AcDbEntity
  8
________
100
AcDbLine
 10
4923.373797411536
 20
233.5812708487583
 30
0.0
 11
4998.391018751664
 21
233.5812708487583
 31
0.0
  0
TEXT
  5
1C421
330
1B896
100
AcDbEntity
  8
MJ
100
AcDbText
 10
4266.583532543988
 20
333.9571803549293
 30
0.0
 40
8.0
  1
■ピボットヒンジ部
100
AcDbText
  0
LINE
  5
1C422
330
1B896
100
AcDbEntity
  8
AM_2
100
AcDbLine
 10
4449.441424627457
 20
256.2989711535565
 30
0.0
 11
4449.441424627457
 21
253.2989711666564
 31
0.0
  0
LINE
  5
1C423
330
1B896
100
AcDbEntity
  8
AM_2
100
AcDbLine
 10
4441.441424627458
 20
256.2989711535565
 30
0.0
 11
4441.441424627458
 21
253.2989711666564
 31
0.0
  0
LINE
  5
1C424
330
1B896
100
AcDbEntity
  8
AM_2
100
AcDbLine
 10
4425.641423077748
 20
257.7989711666564
 30
0.0
 11
4425.641423077748
 21
255.7989711666564
 31
0.0
  0
LINE
  5
1C425
330
1B896
100
AcDbEntity
  8
AM_2
100
AcDbLine
 10
4425.641423077748
 20
259.7989711666564
 30
0.0
 11
4425.641423077748
 21
262.7989712616563
 31
0.0
  0
LINE
  5
1C426
330
1B896
100
AcDbEntity
  8
AM_2
100
AcDbLine
 10
4389.641423077748
 20
259.7989712616564
 30
0.0
 11
4389.641423077748
 21
262.7989712616563
 31
0.0
  0
LINE
  5
1C427
330
1B896
100
AcDbEntity
  8
AM_2
100
AcDbLine
 10
4392.660639424548
 20
259.7989712616564
 30
0.0
 11
4389.641423077748
 21
259.7989712616564
 31
0.0
  0
LINE
  5
1C428
330
1B896
100
AcDbEntity
  8
AM_2
100
AcDbLine
 10
4425.641423077748
 20
262.7989712616563
 30
0.0
 11
4389.641423077748
 21
262.7989712616563
 31
0.0
  0
LINE
  5
1C429
330
1B896
100
AcDbEntity
  8
AM_2
100
AcDbLine
 10
4428.704931576447
 20
259.7989712616564
 30
0.0
 11
4392.660639424548
 21
259.7989712616564
 31
0.0
  0
LINE
  5
1C42A
330
1B896
100
AcDbEntity
  8
AM_2
100
AcDbLine
 10
4392.660639424548
 20
257.7989711666564
 30
0.0
 11
4392.660639424548
 21
259.7989712616564
 31
0.0
  0
LINE
  5
1C42B
330
1B896
100
AcDbEntity
  8
AM_2
100
AcDbLine
 10
4428.641423077748
 20
257.7989711666564
 30
0.0
 11
4392.660639424548
 21
257.7989711666564
 31
0.0
  0
LINE
  5
1C42C
330
1B896
100
AcDbEntity
  8
AM_2
100
AcDbLine
 10
4428.941423077747
 20
265.2989714645564
 30
0.0
 11
4453.941423450248
 21
265.2989714645564
 31
0.0
  0
LINE
  5
1C42D
330
1B896
100
AcDbEntity
  8
AM_2
100
AcDbLine
 10
4428.941423077747
 20
265.2989714645564
 30
0.0
 11
4428.941423077747
 21
259.7989712615563
 31
0.0
  0
LINE
  5
1C42E
330
1B896
100
AcDbEntity
  8
AM_2
100
AcDbLine
 10
4455.941423837648
 20
264.7989713006564
 30
0.0
 11
4428.941423077747
 21
264.7989713006564
 31
0.0
  0
LINE
  5
1C42F
330
1B896
100
AcDbEntity
  8
AM_2
100
AcDbLine
 10
4430.641423077751
 20
258.2989712485565
 30
0.0
 11
4453.941424627448
 21
258.2989712485565
 31
0.0
  0
LINE
  5
1C430
330
1B896
100
AcDbEntity
  8
AM_2
100
AcDbLine
 10
4453.941424627448
 20
256.2989711535565
 30
0.0
 11
4430.830034603048
 21
256.2989711535565
 31
0.0
  0
LINE
  5
1C431
330
1B896
100
AcDbEntity
  8
AM_2
100
AcDbLine
 10
4426.190356687357
 20
259.7989712616564
 30
0.0
 11
4424.190356687358
 21
259.7989712616564
 31
0.0
  0
LINE
  5
1C432
330
1B896
100
AcDbEntity
  8
AM_2
100
AcDbLine
 10
4455.941423837648
 20
264.7989714645564
 30
0.0
 11
4455.941423837648
 21
258.2989712485565
 31
0.0
  0
ARC
  5
1C433
330
1B896
100
AcDbEntity
  8
AM_2
100
AcDbCircle
 10
4455.441423837648
 20
264.7989714645564
 30
0.0
 40
0.5
100
AcDbArc
 50
0.0
 51
90.0
  0
LINE
  5
1C434
330
1B896
100
AcDbEntity
  8
AM_2
100
AcDbLine
 10
4455.441423837648
 20
265.2989714645564
 30
0.0
 11
4453.941423450248
 21
265.2989714645564
 31
0.0
  0
LINE
  5
1C435
330
1B896
100
AcDbEntity
  8
AM_2
100
AcDbLine
 10
4455.941423837648
 20
258.2989712485565
 30
0.0
 11
4454.941423614148
 21
258.2989712485565
 31
0.0
  0
LINE
  5
1C436
330
1B896
100
AcDbEntity
  8
AM_2
100
AcDbLine
 10
4450.363656044649
 20
258.2989712485565
 30
0.0
 11
4454.941423614148
 21
258.2989712485565
 31
0.0
  0
ARC
  5
1C437
330
1B896
100
AcDbEntity
  8
AM_2
100
AcDbCircle
 10
4428.701252859048
 20
257.8134441393565
 30
0.0
 40
2.0
100
AcDbArc
 50
14.04970518431238
 51
83.10296356569498
  0
ARC
  5
1C438
330
1B896
100
AcDbEntity
  8
AM_2
100
AcDbCircle
 10
4453.941423837648
 20
264.2989712485565
 30
0.0
 40
1.0
100
AcDbArc
 50
0.0
 51
89.99999999994789
  0
LINE
  5
1C439
330
1B896
100
AcDbEntity
  8
AM_2
100
AcDbLine
 10
4454.941423614148
 20
258.2989712485565
 30
0.0
 11
4454.941423614148
 21
264.2989713006564
 31
0.0
  0
LINE
  5
1C43A
330
1B896
100
AcDbEntity
  8
AM_2
100
AcDbLine
 10
4453.941424627448
 20
258.2989712485565
 30
0.0
 11
4453.941424627448
 21
256.2989711535565
 31
0.0
  0
LINE
  5
1C43B
330
1B896
100
AcDbEntity
  8
AM_2
100
AcDbLine
 10
4401.641423989748
 20
257.7989711666564
 30
0.0
 11
4401.641423989748
 21
259.7989712616564
 31
0.0
  0
LINE
  5
1C43C
330
1B896
100
AcDbEntity
  8
AM_2
100
AcDbLine
 10
4412.641423930148
 20
259.7989712616564
 30
0.0
 11
4412.641423930148
 21
257.7989711666564
 31
0.0
  0
LINE
  5
1C43D
330
1B896
100
AcDbEntity
  8
AM_2
100
AcDbLine
 10
4430.830034603048
 20
256.2989711535565
 30
0.0
 11
4430.577914406248
 21
256.2989711535565
 31
0.0
  0
LINE
  5
1C43E
330
1B896
100
AcDbEntity
  8
AM_2
100
AcDbLine
 10
4413.641422231349
 20
257.7989711666564
 30
0.0
 11
4428.641422827448
 21
257.7989711666564
 31
0.0
  0
ARC
  5
1C43F
330
1B896
100
AcDbEntity
  8
AM_2
100
AcDbCircle
 10
4428.704931404648
 20
257.7989711535565
 30
0.0
 40
2.0
100
AcDbArc
 50
14.4775121858977
 51
90.0
  0
ARC
  5
1C440
330
1B896
100
AcDbEntity
  8
AM_2
100
AcDbCircle
 10
4430.577914750847
 20
258.2989711535565
 30
0.0
 40
2.0
100
AcDbArc
 50
194.4775121858914
 51
270.0
  0
LINE
  5
1C441
330
1B896
100
AcDbEntity
  8
AM_2
100
AcDbLine
 10
4389.641423077748
 20
257.7989711666564
 30
0.0
 11
4419.641423077748
 21
257.7989711666564
 31
0.0
  0
LINE
  5
1C442
330
1B896
100
AcDbEntity
  8
AM_2
100
AcDbLine
 10
4389.641423077748
 20
257.7989711666564
 30
0.0
 11
4389.641423077748
 21
255.7989711666564
 31
0.0
  0
LINE
  5
1C443
330
1B896
100
AcDbEntity
  8
AM_2
100
AcDbLine
 10
4389.641423077748
 20
255.7989711666564
 30
0.0
 11
4425.641423077748
 21
255.7989711666564
 31
0.0
  0
LINE
  5
1C444
330
1B896
100
AcDbEntity
  8
AM_2
100
AcDbLine
 10
4427.941424627448
 20
252.7989711666564
 30
0.0
 11
4427.941424627448
 21
221.3564830282464
 31
0.0
  0
LINE
  5
1C445
330
1B896
100
AcDbEntity
  8
AM_2
100
AcDbLine
 10
4455.441424627278
 20
225.5926549766364
 30
0.0
 11
4455.441424627278
 21
253.2989711666564
 31
0.0
  0
ARC
  5
1C446
330
1B896
100
AcDbEntity
  8
AM_2
100
AcDbCircle
 10
4453.441424627277
 20
225.5926549766364
 30
0.0
 40
2.0
100
AcDbArc
 50
276.225829064571
 51
0.0
  0
LINE
  5
1C447
330
1B896
100
AcDbEntity
  8
AM_2
100
AcDbLine
 10
4455.441424627278
 20
253.2989711666564
 30
0.0
 11
4428.941424627448
 21
253.2989711666564
 31
0.0
  0
ARC
  5
1C448
330
1B896
100
AcDbEntity
  8
AM_2
100
AcDbCircle
 10
4428.441424627448
 20
221.3564830282204
 30
0.0
 40
0.5
100
AcDbArc
 50
180.0
 51
276.2258290647807
  0
LINE
  5
1C449
330
1B896
100
AcDbEntity
  8
AM_2
100
AcDbLine
 10
4428.495648382538
 20
220.8594319399364
 30
0.0
 11
4453.658319647626
 21
223.6044506234164
 31
0.0
  0
ARC
  5
1C44A
330
1B896
100
AcDbEntity
  8
AM_2
100
AcDbCircle
 10
4428.941424627448
 20
252.2989711666564
 30
0.0
 40
1.0
100
AcDbArc
 50
89.99999999984366
 51
180.0
  0
LINE
  5
1C44B
330
1B896
100
AcDbEntity
  8
AM_2
100
AcDbLine
 10
4441.641424627437
 20
-5.701028833343457
 30
0.0
 11
4441.641424627437
 21
-11.70102880724346
 31
0.0
  0
LINE
  5
1C44C
330
1B896
100
AcDbEntity
  8
AM_2
100
AcDbLine
 10
4449.241424627438
 20
-5.701028833343457
 30
0.0
 11
4449.241424627438
 21
-11.70102880724346
 31
0.0
  0
LINE
  5
1C44D
330
1B896
100
AcDbEntity
  8
AM_2
100
AcDbLine
 10
4431.941424627438
 20
-11.70102880724346
 30
0.0
 11
4436.001927421037
 21
-11.70102880724346
 31
0.0
  0
ARC
  5
1C44E
330
1B896
100
AcDbEntity
  8
AM_2
100
AcDbCircle
 10
4431.941424627438
 20
-12.70102880724346
 30
0.0
 40
1.0
100
AcDbArc
 50
90.0
 51
180.0
  0
LINE
  5
1C44F
330
1B896
100
AcDbEntity
  8
AM_2
100
AcDbLine
 10
4430.941424627438
 20
-12.70102880724346
 30
0.0
 11
4430.941424627438
 21
-14.70102883334345
 31
0.0
  0
LINE
  5
1C450
330
1B896
100
AcDbEntity
  8
AM_2
100
AcDbLine
 10
4469.941424035144
 20
-12.70102873834344
 30
0.0
 11
4435.441424433738
 21
-12.70102873834344
 31
0.0
  0
LINE
  5
1C451
330
1B896
100
AcDbEntity
  8
AM_2
100
AcDbLine
 10
4431.191424668438
 20
-14.70102883334345
 30
0.0
 11
4431.691424517538
 21
-16.20102884644347
 31
0.0
  0
LINE
  5
1C452
330
1B896
100
AcDbEntity
  8
AM_2
100
AcDbLine
 10
4431.691424517538
 20
-16.20102884644347
 30
0.0
 11
4432.191424832338
 21
-14.70102883334345
 31
0.0
  0
LINE
  5
1C453
330
1B896
100
AcDbEntity
  8
AM_2
100
AcDbLine
 10
4434.191424694538
 20
-16.20102884644347
 30
0.0
 11
4434.691424776437
 21
-14.70102883334345
 31
0.0
  0
LINE
  5
1C454
330
1B896
100
AcDbEntity
  8
AM_2
100
AcDbLine
 10
4433.691424612538
 20
-14.70102883334345
 30
0.0
 11
4434.191424694538
 21
-16.20102884644347
 31
0.0
  0
LINE
  5
1C455
330
1B896
100
AcDbEntity
  8
AM_2
100
AcDbLine
 10
4430.941424627438
 20
-14.70102883334345
 30
0.0
 11
4435.441424433738
 21
-14.70102883334345
 31
0.0
  0
LINE
  5
1C456
330
1B896
100
AcDbEntity
  8
AM_2
100
AcDbLine
 10
4435.441424433738
 20
-12.70102873834344
 30
0.0
 11
4430.941424627438
 21
-12.70102873834344
 31
0.0
  0
LINE
  5
1C457
330
1B896
100
AcDbEntity
  8
AM_2
100
AcDbLine
 10
4435.466894709139
 20
-12.40050887154348
 30
0.0
 11
4435.441424433738
 21
-12.70102873834344
 31
0.0
  0
LINE
  5
1C458
330
1B896
100
AcDbEntity
  8
AM_2
100
AcDbLine
 10
4435.538610272739
 20
-12.13447099014342
 30
0.0
 11
4435.466894709139
 21
-12.40050887154348
 31
0.0
  0
LINE
  5
1C459
330
1B896
100
AcDbEntity
  8
AM_2
100
AcDbLine
 10
4435.651968528138
 20
-11.91653079744344
 30
0.0
 11
4435.538610272739
 21
-12.13447099014342
 31
0.0
  0
LINE
  5
1C45A
330
1B896
100
AcDbEntity
  8
AM_2
100
AcDbLine
 10
4435.809046790538
 20
-11.76062018074344
 30
0.0
 11
4435.651968528138
 21
-11.91653079744344
 31
0.0
  0
LINE
  5
1C45B
330
1B896
100
AcDbEntity
  8
AM_2
100
AcDbLine
 10
4435.998549514137
 20
-11.70104626954344
 30
0.0
 11
4435.809046790538
 21
-11.76062018074344
 31
0.0
  0
LINE
  5
1C45C
330
1B896
100
AcDbEntity
  8
AM_2
100
AcDbLine
 10
4436.001927421037
 20
-11.70102880724346
 30
0.0
 11
4435.998549514137
 21
-11.70104626954344
 31
0.0
  0
LINE
  5
1C45D
330
1B896
100
AcDbEntity
  8
AM_2
100
AcDbLine
 10
4436.001927421037
 20
-11.70102880724346
 30
0.0
 11
4468.941425733843
 21
-11.70102880724346
 31
0.0
  0
LINE
  5
1C45E
330
1B896
100
AcDbEntity
  8
AM_2
100
AcDbLine
 10
4435.441424433738
 20
-14.70102883334345
 30
0.0
 11
4469.941424035144
 21
-14.70102883334345
 31
0.0
  0
LINE
  5
1C45F
330
1B896
100
AcDbEntity
  8
AM_2
100
AcDbLine
 10
4435.441424433738
 20
-12.70102873834344
 30
0.0
 11
4435.441424433738
 21
-14.70102883334345
 31
0.0
  0
ARC
  5
1C460
330
1B896
100
AcDbEntity
  8
AM_2
100
AcDbCircle
 10
4468.941424611342
 20
-12.70102883334345
 30
0.0
 40
1.0
100
AcDbArc
 50
0.0
 51
90.0
  0
LINE
  5
1C461
330
1B896
100
AcDbEntity
  8
AM_2
100
AcDbLine
 10
4469.941424035144
 20
-14.70102883334345
 30
0.0
 11
4469.941424035144
 21
-12.70102873834344
 31
0.0
  0
LINE
  5
1C462
330
1B896
100
AcDbEntity
  8
AM_2
100
AcDbLine
 10
4394.941424627448
 20
-5.201028833343457
 30
0.0
 11
4394.941424627448
 21
-2.701028833343457
 31
0.0
  0
LINE
  5
1C463
330
1B896
100
AcDbEntity
  8
AM_2
100
AcDbLine
 10
4427.941424627438
 20
-4.701028833343457
 30
0.0
 11
4427.941424627438
 21
26.24145930507654
 31
0.0
  0
LINE
  5
1C464
330
1B896
100
AcDbEntity
  8
AM_2
100
AcDbLine
 10
4455.441424627268
 20
-5.701028833343457
 30
0.0
 11
4428.941424627438
 21
-5.701028833343457
 31
0.0
  0
ARC
  5
1C465
330
1B896
100
AcDbEntity
  8
AM_2
100
AcDbCircle
 10
4428.441424627448
 20
26.24145930507654
 30
0.0
 40
0.5
100
AcDbArc
 50
83.77417093668704
 51
180.0
  0
LINE
  5
1C466
330
1B896
100
AcDbEntity
  8
AM_2
100
AcDbLine
 10
4428.495648382528
 20
26.73851039337665
 30
0.0
 11
4453.658319647618
 21
23.9934917098966
 31
0.0
  0
LINE
  5
1C467
330
1B896
100
AcDbEntity
  8
AM_2
100
AcDbLine
 10
4455.441424627268
 20
22.00528735667671
 30
0.0
 11
4455.441424627268
 21
-5.701028833343457
 31
0.0
  0
ARC
  5
1C468
330
1B896
100
AcDbEntity
  8
AM_2
100
AcDbCircle
 10
4453.441424627268
 20
22.00528735667671
 30
0.0
 40
2.0
100
AcDbArc
 50
0.0
 51
83.77417093553395
  0
LINE
  5
1C469
330
1B896
100
AcDbEntity
  8
AM_2
100
AcDbLine
 10
4394.941424627448
 20
-5.201028833343457
 30
0.0
 11
4428.075399223657
 21
-5.201028833343457
 31
0.0
  0
LINE
  5
1C46A
330
1B896
100
AcDbEntity
  8
AM_2
100
AcDbLine
 10
4394.941424627448
 20
-2.701028833343457
 30
0.0
 11
4427.941424627448
 21
-2.701028833343457
 31
0.0
  0
ARC
  5
1C46B
330
1B896
100
AcDbEntity
  8
AM_2
100
AcDbCircle
 10
4428.941424627438
 20
-4.701028833333452
 30
0.0
 40
1.0
100
AcDbArc
 50
180.0
 51
270.0
  0
LINE
  5
1C46C
330
1B896
100
AcDbEntity
  8
AM_0
100
AcDbLine
 10
4427.941424627448
 20
-2.701028833343457
 30
0.0
 11
4387.941424627448
 21
-2.701028833343457
 31
0.0
  0
LINE
  5
1C46D
330
1B896
100
AcDbEntity
  8
OS
 62
     2
100
AcDbLine
 10
4418.941424627448
 20
-5.201028833343457
 30
0.0
 11
4418.941424627448
 21
-14.70102883334357
 31
0.0
  0
LINE
  5
1C46E
330
1B896
100
AcDbEntity
  8
AM_0
100
AcDbLine
 10
4427.941424627448
 20
252.7989711666564
 30
0.0
 11
4427.941424627448
 21
-2.701028833343571
 31
0.0
  0
LINE
  5
1C46F
330
1B896
100
AcDbEntity
  8
AM_0
100
AcDbLine
 10
4427.941424627448
 20
252.7989711666564
 30
0.0
 11
4387.941424627448
 21
252.7989711666564
 31
0.0
  0
LINE
  5
1C470
330
1B896
100
AcDbEntity
  8
AM_0
100
AcDbLine
 10
4387.941424627448
 20
252.7989711666564
 30
0.0
 11
4387.941424627448
 21
-2.701028833343571
 31
0.0
  0
LINE
  5
1C471
330
1B896
100
AcDbEntity
  8
________
100
AcDbLine
 10
4407.941424627447
 20
263.0317498264803
 30
0.0
 11
4407.941424627447
 21
324.0613376149906
 31
0.0
  0
LINE
  5
1C473
330
1B896
100
AcDbEntity
  8
AM_0
100
AcDbLine
 10
4383.941424627447
 20
289.7989711666564
 30
0.0
 11
4430.941424627448
 21
289.7989711666564
 31
0.0
  0
LINE
  5
1C474
330
1B896
100
AcDbEntity
  8
AM_0
100
AcDbLine
 10
4383.941424627447
 20
265.7989711666564
 30
0.0
 11
4428.941424627448
 21
265.7989711666564
 31
0.0
  0
LINE
  5
1C475
330
1B896
100
AcDbEntity
  8
AM_0
100
AcDbLine
 10
4383.941424627447
 20
289.7989711666564
 30
0.0
 11
4383.941424627447
 21
265.7989711666564
 31
0.0
  0
LINE
  5
1C476
330
1B896
100
AcDbEntity
  8
AM_0
100
AcDbLine
 10
4428.941424627448
 20
265.7989711666564
 30
0.0
 11
4430.941424627448
 21
267.7989711666564
 31
0.0
  0
LINE
  5
1C477
330
1B896
100
AcDbEntity
  8
AM_0
100
AcDbLine
 10
4430.941424627448
 20
267.7989711666564
 30
0.0
 11
4430.941424627448
 21
289.7989711666564
 31
0.0
  0
LINE
  5
1C478
330
1B896
100
AcDbEntity
  8
OS
 62
     2
100
AcDbLine
 10
4383.941424627447
 20
265.7989711666564
 30
0.0
 11
4383.941424627447
 21
-14.70102883334368
 31
0.0
  0
LINE
  5
1C479
330
1B896
100
AcDbEntity
  8
OS
 62
     2
100
AcDbLine
 10
4597.616411209006
 20
203.5812708487583
 30
0.0
 11
4592.641000134761
 21
203.5812708487583
 31
0.0
  0
LINE
  5
1C47A
330
1B896
100
AcDbEntity
  8
OS
 62
     2
100
AcDbLine
 10
4637.141000134762
 20
203.5812708487583
 30
0.0
 11
4607.773416656809
 21
203.5812708487583
 31
0.0
  0
LINE
  5
1C47B
330
1B896
100
AcDbEntity
  8
OS
 62
     2
100
AcDbLine
 10
4656.641000134762
 20
184.0812708487583
 30
0.0
 11
4592.641000134761
 21
184.0812708487583
 31
0.0
  0
LINE
  5
1C47C
330
1B896
100
AcDbEntity
  8
OS
 62
     2
100
AcDbLine
 10
4656.641000134762
 20
184.0812708487583
 30
0.0
 11
4656.641000134762
 21
216.0812708487583
 31
0.0
  0
LINE
  5
1C47D
330
1B896
100
AcDbEntity
  8
OS
 62
     2
100
AcDbLine
 10
4649.641000134762
 20
191.0812708487583
 30
0.0
 11
4656.641000134762
 21
184.0812708487583
 31
0.0
  0
LINE
  5
1C47E
330
1B896
100
AcDbEntity
  8
OS
 62
     2
100
AcDbLine
 10
4657.141000134762
 20
328.0812708487583
 30
0.0
 11
4657.141000134762
 21
251.0812708487583
 31
0.0
  0
LINE
  5
1C47F
330
1B896
100
AcDbEntity
  8
OS
 62
     2
100
AcDbLine
 10
4657.141000134762
 20
328.0812708487583
 30
0.0
 11
4592.641000134761
 21
328.0812708487583
 31
0.0
  0
LINE
  5
1C480
330
1B896
100
AcDbEntity
  8
OS
 62
     2
100
AcDbLine
 10
4650.141000134762
 20
321.0812708487583
 30
0.0
 11
4657.141000134762
 21
328.0812708487583
 31
0.0
  0
LINE
  5
1C481
330
1B896
100
AcDbEntity
  8
OS
 62
     2
100
AcDbLine
 10
4934.141018751663
 20
216.0812708487583
 30
0.0
 11
4934.141018751663
 21
144.581059335636
 31
0.0
  0
CIRCLE
  5
1C482
330
1B896
100
AcDbEntity
  8
AM_2
  6
DASHED1
100
AcDbCircle
 10
4914.641018751662
 20
189.0812708487582
 30
0.0
 40
3.799999999999998
  0
LINE
  5
1C483
330
1B896
100
AcDbEntity
  8
AM_2
100
AcDbLine
 10
4926.719094832102
 20
191.8903754412163
 30
0.0
 11
4924.040530110632
 21
207.0812708487562
 31
0.0
  0
ARC
  5
1C484
330
1B896
100
AcDbEntity
  8
AM_2
100
AcDbCircle
 10
4916.871017301982
 20
190.1538936645463
 30
0.0
 40
10.0
100
AcDbArc
 50
315.0000000000114
 51
10.00000000000389
  0
ARC
  5
1C485
330
1B896
100
AcDbEntity
  8
AM_2
100
AcDbCircle
 10
4918.783675860432
 20
183.5812708487653
 30
0.0
 40
4.0
100
AcDbArc
 50
269.9999999998436
 51
315.0000000000114
  0
LINE
  5
1C486
330
1B896
100
AcDbEntity
  8
AM_2
100
AcDbLine
 10
4923.942085113842
 20
183.0828258526822
 30
0.0
 11
4921.612102985182
 21
180.7528437240192
 31
0.0
  0
ARC
  5
1C487
330
1B896
100
AcDbEntity
  8
AM_2
100
AcDbCircle
 10
4911.384992378092
 20
183.5812708487883
 30
0.0
 40
4.0
100
AcDbArc
 50
205.691784336162
 51
269.9999999998957
  0
LINE
  5
1C488
330
1B896
100
AcDbEntity
  8
AM_2
100
AcDbLine
 10
4918.783675860432
 20
179.5812708487653
 30
0.0
 11
4911.384992378092
 21
179.5812708487833
 31
0.0
  0
ARC
  5
1C489
330
1B896
100
AcDbEntity
  8
AM_2
100
AcDbCircle
 10
4897.231327495653
 20
206.0812708487552
 30
0.0
 40
1.0
100
AcDbArc
 50
90.00000000005213
 51
205.6917843359839
  0
LINE
  5
1C48A
330
1B896
100
AcDbEntity
  8
AM_2
100
AcDbLine
 10
4896.330188301051
 20
205.6477409744082
 30
0.0
 11
4907.780435599693
 21
181.8471513513893
 31
0.0
  0
LINE
  5
1C48B
330
1B896
100
AcDbEntity
  8
________
100
AcDbLine
 10
4914.641018751662
 20
197.7062379368763
 30
0.0
 11
4914.641018751662
 21
181.6661387056482
 31
0.0
  0
LINE
  5
1C48C
330
1B896
100
AcDbEntity
  8
________
100
AcDbLine
 10
4908.758550054783
 20
189.0812708487582
 30
0.0
 11
4920.589991567173
 21
189.0812708487582
 31
0.0
  0
LINE
  5
1C48D
330
1B896
100
AcDbEntity
  8
AM_0
100
AcDbLine
 10
4930.141018751663
 20
207.0812708487583
 30
0.0
 11
4930.141018751663
 21
213.0812708487583
 31
0.0
  0
LINE
  5
1C48E
330
1B896
100
AcDbEntity
  8
AM_0
100
AcDbLine
 10
4930.141018751663
 20
213.0812708487583
 30
0.0
 11
4922.141000134762
 21
213.0812708487583
 31
0.0
  0
LINE
  5
1C48F
330
1B896
100
AcDbEntity
  8
AM_0
100
AcDbLine
 10
4922.141000134762
 20
247.0812708487583
 30
0.0
 11
4922.141000134762
 21
213.0812708487583
 31
0.0
  0
LINE
  5
1C490
330
1B896
100
AcDbEntity
  8
AM_0
100
AcDbLine
 10
4668.641000134762
 20
213.0812708487583
 30
0.0
 11
4668.641000134762
 21
247.0812708487583
 31
0.0
  0
LINE
  5
1C491
330
1B896
100
AcDbEntity
  8
AM_0
100
AcDbLine
 10
4668.641000134762
 20
247.0812708487583
 30
0.0
 11
4793.891000134762
 21
247.0812708487583
 31
0.0
  0
LINE
  5
1C492
330
1B896
100
AcDbEntity
  8
AM_2
100
AcDbLine
 10
4661.441000134762
 20
215.0812708487583
 30
0.0
 11
4661.441000134762
 21
213.5812708487583
 31
0.0
  0
LINE
  5
1C493
330
1B896
100
AcDbEntity
  8
AM_2
100
AcDbLine
 10
4667.841000134762
 20
213.5812708487583
 30
0.0
 11
4667.841000134762
 21
215.0812708487583
 31
0.0
  0
LINE
  5
1C494
330
1B896
100
AcDbEntity
  8
AM_2
100
AcDbLine
 10
4661.441000134762
 20
215.0812708487583
 30
0.0
 11
4667.841000134762
 21
215.0812708487583
 31
0.0
  0
LINE
  5
1C495
330
1B896
100
AcDbEntity
  8
AM_2
100
AcDbLine
 10
4660.641000134762
 20
213.5812708487583
 30
0.0
 11
4660.641000134762
 21
213.0812708487583
 31
0.0
  0
LINE
  5
1C496
330
1B896
100
AcDbEntity
  8
AM_0
100
AcDbLine
 10
4660.641000134762
 20
207.0812708487583
 30
0.0
 11
4793.891000134762
 21
207.0812708487583
 31
0.0
  0
LINE
  5
1C497
330
1B896
100
AcDbEntity
  8
AM_0
100
AcDbLine
 10
4660.641000134762
 20
207.0812708487583
 30
0.0
 11
4660.641000134762
 21
213.0812708487583
 31
0.0
  0
LINE
  5
1C498
330
1B896
100
AcDbEntity
  8
AM_0
100
AcDbLine
 10
4660.641000134762
 20
213.0812708487583
 30
0.0
 11
4668.641000134762
 21
213.0812708487583
 31
0.0
  0
LINE
  5
1C499
330
1B896
100
AcDbEntity
  8
AM_0
100
AcDbLine
 10
4930.141018751663
 20
207.0812708487583
 30
0.0
 11
4793.891000134762
 21
207.0812708487583
 31
0.0
  0
LINE
  5
1C49A
330
1B896
100
AcDbEntity
  8
AM_0
100
AcDbLine
 10
4922.141000134762
 20
247.0812708487583
 30
0.0
 11
4793.891000134762
 21
247.0812708487583
 31
0.0
  0
LINE
  5
1C49B
330
1B896
100
AcDbEntity
  8
AM_0
100
AcDbLine
 10
4922.141000134762
 20
247.0812708487583
 30
0.0
 11
4922.141000134762
 21
213.0812708487583
 31
0.0
  0
LINE
  5
1C49C
330
1B896
100
AcDbEntity
  8
AM_2
100
AcDbLine
 10
4660.641000134762
 20
213.5812708487583
 30
0.0
 11
4668.641000134762
 21
213.5812708487583
 31
0.0
  0
LINE
  5
1C49D
330
1B896
100
AcDbEntity
  8
AM_0
100
AcDbLine
 10
4926.141018751663
 20
218.0812708487583
 30
0.0
 11
4926.141018751663
 21
227.1812708487583
 31
0.0
  0
LINE
  5
1C49E
330
1B896
100
AcDbEntity
  8
OS
 62
     2
100
AcDbLine
 10
4953.641018751663
 20
216.0812708487583
 30
0.0
 11
4953.641018751663
 21
92.9984970973747
 31
0.0
  0
LINE
  5
1C49F
330
1B896
100
AcDbEntity
  8
OS
 62
     2
100
AcDbLine
 10
4649.641000134762
 20
216.0812708487583
 30
0.0
 11
4649.641000134762
 21
191.0812708487583
 31
0.0
  0
LINE
  5
1C4A0
330
1B896
100
AcDbEntity
  8
OS
 62
     2
100
AcDbLine
 10
4637.141000134762
 20
216.0812708487583
 30
0.0
 11
4637.141000134762
 21
191.0812708487583
 31
0.0
  0
LINE
  5
1C4A1
330
1B896
100
AcDbEntity
  8
OS
 62
     2
100
AcDbLine
 10
4637.141000134762
 20
321.0812708487583
 30
0.0
 11
4637.141000134762
 21
251.0812708487583
 31
0.0
  0
LINE
  5
1C4A2
330
1B896
100
AcDbEntity
  8
OS
 62
     2
100
AcDbLine
 10
4650.141000134762
 20
321.0812708487583
 30
0.0
 11
4650.141000134762
 21
251.0812708487583
 31
0.0
  0
LINE
  5
1C4A3
330
1B896
100
AcDbEntity
  8
OS
 62
     2
100
AcDbLine
 10
4934.141018751663
 20
359.8454654237221
 30
0.0
 11
4934.141018751663
 21
251.0812708487583
 31
0.0
  0
LINE
  5
1C4A4
330
1B896
100
AcDbEntity
  8
OS
 62
     2
100
AcDbLine
 10
4941.141018751663
 20
251.0812708487583
 30
0.0
 11
4941.141018751663
 21
359.8454654237221
 31
0.0
  0
LINE
  5
1C4A5
330
1B896
100
AcDbEntity
  8
OS
 62
     2
100
AcDbLine
 10
4953.641018751663
 20
251.0812708487583
 30
0.0
 11
4953.641018751663
 21
359.8454654237221
 31
0.0
  0
LINE
  5
1C4A6
330
1B896
100
AcDbEntity
  8
AM_0
100
AcDbLine
 10
4928.141018751663
 20
216.0812708487583
 30
0.0
 11
4926.141018751663
 21
218.0812708487583
 31
0.0
  0
LINE
  5
1C4A7
330
1B896
100
AcDbEntity
  8
AM_0
100
AcDbLine
 10
4637.141000134762
 20
216.0812708487583
 30
0.0
 11
4637.141000134762
 21
251.0812708487583
 31
0.0
  0
LINE
  5
1C4A8
330
1B896
100
AcDbEntity
  8
AM_0
100
AcDbLine
 10
4662.641000134762
 20
216.0812708487583
 30
0.0
 11
4637.141000134762
 21
216.0812708487583
 31
0.0
  0
LINE
  5
1C4A9
330
1B896
100
AcDbEntity
  8
AM_0
100
AcDbLine
 10
4928.141018751663
 20
216.0812708487583
 30
0.0
 11
4953.641018751663
 21
216.0812708487583
 31
0.0
  0
LINE
  5
1C4AC
330
1B896
100
AcDbEntity
  8
OS
 62
     2
100
AcDbLine
 10
4941.141018751663
 20
216.0812708487583
 30
0.0
 11
4941.141018751663
 21
142.4559968096126
 31
0.0
  0
LINE
  5
1C4AD
330
1B896
100
AcDbEntity
  8
OS
 62
     2
100
AcDbLine
 10
4953.641018751663
 20
203.5812708487583
 30
0.0
 11
4998.641018751663
 21
203.5812708487583
 31
0.0
  0
LINE
  5
1C4AE
330
1B896
100
AcDbEntity
  8
OS
 62
     2
100
AcDbLine
 10
4953.641018751663
 20
308.5812708487583
 30
0.0
 11
4998.641018751663
 21
308.5812708487583
 31
0.0
  0
LINE
  5
1C4AF
330
1B896
100
AcDbEntity
  8
OS
 62
     2
100
AcDbLine
 10
4650.141000134762
 20
321.0812708487583
 30
0.0
 11
4592.641000134761
 21
321.0812708487583
 31
0.0
  0
LINE
  5
1C4B0
330
1B896
100
AcDbEntity
  8
OS
 62
     2
100
AcDbLine
 10
4650.141000134762
 20
321.0812708487583
 30
0.0
 11
4592.641000134761
 21
321.0812708487583
 31
0.0
  0
LINE
  5
1C4B1
330
1B896
100
AcDbEntity
  8
OS
 62
     2
100
AcDbLine
 10
4637.141000134762
 20
308.5812708487583
 30
0.0
 11
4592.141000134762
 21
308.5812708487583
 31
0.0
  0
LINE
  5
1C4B2
330
1B896
100
AcDbEntity
  8
OS
 62
     2
100
AcDbLine
 10
4649.641000134762
 20
191.0812708487583
 30
0.0
 11
4592.641000134761
 21
191.0812708487583
 31
0.0
  0
LINE
  5
1C4B3
330
1B896
100
AcDbEntity
  8
AM_0
100
AcDbLine
 10
4953.641018751663
 20
216.0812708487583
 30
0.0
 11
4953.641018751663
 21
251.0812708487583
 31
0.0
  0
LINE
  5
1C4B4
330
1B896
100
AcDbEntity
  8
AM_0
100
AcDbLine
 10
4662.641000134762
 20
251.0812708487583
 30
0.0
 11
4637.141000134762
 21
251.0812708487583
 31
0.0
  0
LINE
  5
1C4B5
330
1B896
100
AcDbEntity
  8
AM_0
100
AcDbLine
 10
4928.141018751663
 20
251.0812708487583
 30
0.0
 11
4953.641018751663
 21
251.0812708487583
 31
0.0
  0
LINE
  5
1C4B6
330
1B896
100
AcDbEntity
  8
AM_0
100
AcDbLine
 10
4928.141018751663
 20
251.0812708487583
 30
0.0
 11
4926.141018751663
 21
249.0812708487583
 31
0.0
  0
LINE
  5
1C4B8
330
1B896
100
AcDbEntity
  8
OS
 62
     2
100
AcDbLine
 10
4313.941424627448
 20
420.2813745834903
 30
0.0
 11
4313.941424627448
 21
487.3577179106351
 31
0.0
  0
LINE
  5
1C4B9
330
1B896
100
AcDbEntity
  8
OS
 62
     2
100
AcDbLine
 10
4418.941424627448
 20
262.7989712616563
 30
0.0
 11
4418.941424627448
 21
265.7989711666564
 31
0.0
  0
LINE
  5
1C4BA
330
1B896
100
AcDbEntity
  8
________
100
AcDbLine
 10
4664.408202857988
 20
233.5812708487583
 30
0.0
 11
4608.876536843426
 21
233.5812708487583
 31
0.0
  0
LINE
  5
1C4BB
330
1B896
100
AcDbEntity
  8
OS
 62
     2
100
AcDbLine
 10
4326.441424627448
 20
432.7813745834903
 30
0.0
 11
4431.441424627448
 21
456.7813745834904
 31
0.0
  0
LINE
  5
1C4BC
330
1B896
100
AcDbEntity
  8
OS
 62
     2
100
AcDbLine
 10
4326.441424627448
 20
278.2989711666564
 30
0.0
 11
4431.441424627448
 21
302.2989711666564
 31
0.0
  0
TEXT
  5
1C4BD
330
1B896
100
AcDbEntity
  8
MJ
100
AcDbText
 10
4873.069669451094
 20
-21.50742803653952
 30
0.0
 40
7.0
  1
ssd03a01
 41
0.9
100
AcDbText
  0
TEXT
  5
1C4BE
330
1B896
100
AcDbEntity
  8
MJ
100
AcDbText
 10
4873.069669451094
 20
-11.50742803653952
 30
0.0
 40
7.0
  1
たて横断面
 41
0.9
100
AcDbText
  0
TEXT
  5
1C4BF
330
1B896
100
AcDbEntity
  8
MJ
100
AcDbText
 10
4873.069669451094
 20
8.492571963460477
 30
0.0
 40
7.0
  1
室内ドア　OHドア　2方枠/埋込上枠
 41
0.9
100
AcDbText
  0
TEXT
  5
1C4C0
330
1B896
100
AcDbEntity
  8
MJ
100
AcDbText
 10
4873.069669451094
 20
18.49257196346047
 30
0.0
 40
7.0
  1
シンプル・スリム枠
 41
0.9
100
AcDbText
  0
TEXT
  5
1C4C1
330
1B896
100
AcDbEntity
  8
MJ
100
AcDbText
 10
4873.069669451094
 20
-1.507428036539522
 30
0.0
 40
7.0
  1
枠見込み35ｍｍ
 41
0.9
100
AcDbText
  0
LINE
  5
1C4C2
330
1B896
100
AcDbEntity
  8
OS
 62
     2
100
AcDbLine
 10
4443.941424627448
 20
222.5444257121182
 30
0.0
 11
4443.941424627449
 21
25.05351662119402
 31
0.0
  0
TEXT
  5
1C4C3
330
1B896
100
AcDbEntity
  8
AM_5
100
AcDbText
 10
4583.931893967061
 20
161.1201846964158
 30
0.0
 40
6.0
  1
巾木
 41
0.9
100
AcDbText
  0
LINE
  5
1C4C4
330
1B896
100
AcDbEntity
  8
AM_5
100
AcDbLine
 10
4495.553177681862
 20
-14.70102883334345
 30
0.0
 11
4495.553177681862
 21
265.7989711666564
 31
0.0
1001
ACAD_DSTYLE_DIMINSPECT
1070
   393
1070
     0
1001
ACAD
1000
DSTYLE
1002
{
1070
   140
1040
5.0
1070
   173
1070
     1
1070
    72
1070
     0
1070
    71
1070
     0
1002
}
  0
LINE
  5
1C4C5
330
1B896
100
AcDbEntity
  8
AM_5
100
AcDbLine
 10
4926.141018751663
 20
118.3486753758232
 30
0.0
 11
4664.641000134762
 21
118.3486753758232
 31
0.0
1001
ACAD_DSTYLE_DIMINSPECT
1070
   393
1070
     0
1001
ACAD
1000
DSTYLE
1002
{
1070
   140
1040
5.0
1070
   173
1070
     1
1070
   174
1070
     1
1070
    72
1070
     0
1070
    71
1070
     0
1002
}
  0
ARC
  5
1C4C6
330
1B896
100
AcDbEntity
  8
TS
100
AcDbCircle
 10
4657.641000134762
 20
225.0812708487584
 30
0.0
 40
0.5
100
AcDbArc
 50
148.2292097835195
 51
270.0
  0
LINE
  5
1C4C7
330
1B896
100
AcDbEntity
  8
TS
100
AcDbLine
 10
4664.141000134762
 20
224.5812708487584
 30
0.0
 11
4657.641000134762
 21
224.5812708487584
 31
0.0
  0
LINE
  5
1C4C8
330
1B896
100
AcDbEntity
  8
AM_2
  6
CONTINUOUS
100
AcDbLine
 10
4668.641000134762
 20
224.5812708487584
 30
0.0
 11
4664.641000134762
 21
224.5812708487584
 31
0.0
  0
ARC
  5
1C4C9
330
1B896
100
AcDbEntity
  8
TS
100
AcDbCircle
 10
4685.966531086808
 20
207.5386832283035
 30
0.0
 40
33.81783432542852
100
AcDbArc
 50
130.1945652099084
 51
148.2292097835444
  0
ARC
  5
1C4CA
330
1B896
100
AcDbEntity
  8
AM_2
  6
CONTINUOUS
100
AcDbCircle
 10
4685.966531086808
 20
207.5386832283035
 30
0.0
 40
33.81783432542852
100
AcDbArc
 50
120.8184444461577
 51
129.0944134323249
  0
LINE
  5
1C4CB
330
1B896
100
AcDbEntity
  8
OS
 62
     2
100
AcDbLine
 10
4941.141018751663
 20
116.2389032910961
 30
0.0
 11
4941.141018751663
 21
92.9984970973747
 31
0.0
  0
LINE
  5
1C4CC
330
1B896
100
AcDbEntity
  8
OS
 62
     2
100
AcDbLine
 10
4934.141018751663
 20
116.2389032910961
 30
0.0
 11
4934.141018751663
 21
92.9984970973747
 31
0.0
  0
TEXT
  5
1C4CD
330
1B896
100
AcDbEntity
  8
AM_5
100
AcDbText
 10
4452.53388976239
 20
454.692976043495
 30
0.0
 40
6.0
  1
LDD-V（ラプコン隠しドアダンパー）
 41
0.9
100
AcDbText
  0
LINE
  5
1C4CE
330
1B896
100
AcDbEntity
  8
AM_2
100
AcDbLine
 10
4932.641018751663
 20
233.6812708487583
 30
0.0
 11
4932.641018751663
 21
233.4812708487584
 31
0.0
  0
LINE
  5
1C4CF
330
1B896
100
AcDbEntity
  8
AM_2
100
AcDbLine
 10
4926.141018751663
 20
228.0812708487583
 30
0.0
 11
4926.141018751663
 21
239.0812708487583
 31
0.0
  0
LINE
  5
1C4D0
330
1B896
100
AcDbEntity
  8
AM_2
100
AcDbLine
 10
4927.441018751664
 20
234.0812708487583
 30
0.0
 11
4931.634633884391
 21
234.0812708487583
 31
0.0
  0
LINE
  5
1C4D1
330
1B896
100
AcDbEntity
  8
AM_2
100
AcDbLine
 10
4927.441018751664
 20
234.0812708487583
 30
0.0
 11
4927.641018751663
 21
239.5812708487583
 31
0.0
  0
LINE
  5
1C4D2
330
1B896
100
AcDbEntity
  8
AM_2
100
AcDbLine
 10
4932.641018751663
 20
233.6812708487583
 30
0.0
 11
4931.301798355378
 21
235.2312708487584
 31
0.0
  0
LINE
  5
1C4D3
330
1B896
100
AcDbEntity
  8
AM_2
100
AcDbLine
 10
4931.634633884391
 20
234.0812708487583
 30
0.0
 11
4930.641018751663
 21
235.2312708487584
 31
0.0
  0
LINE
  5
1C4D4
330
1B896
100
AcDbEntity
  8
AM_2
100
AcDbLine
 10
4930.641018751663
 20
235.2312708487584
 30
0.0
 11
4931.301798355378
 21
235.2312708487584
 31
0.0
  0
LINE
  5
1C4D5
330
1B896
100
AcDbEntity
  8
AM_2
100
AcDbLine
 10
4926.641018751663
 20
239.5812708487583
 30
0.0
 11
4927.641018751663
 21
239.5812708487583
 31
0.0
  0
ARC
  5
1C4D6
330
1B896
100
AcDbEntity
  8
AM_2
100
AcDbCircle
 10
4926.641018751663
 20
239.0812708487583
 30
0.0
 40
0.5
100
AcDbArc
 50
90.0
 51
180.0
  0
LINE
  5
1C4D7
330
1B896
100
AcDbEntity
  8
AM_2
100
AcDbLine
 10
4927.441018751664
 20
233.0812708487583
 30
0.0
 11
4931.634633884391
 21
233.0812708487583
 31
0.0
  0
LINE
  5
1C4D8
330
1B896
100
AcDbEntity
  8
AM_2
100
AcDbLine
 10
4927.441018751664
 20
233.0812708487583
 30
0.0
 11
4927.641018751663
 21
227.5812708487583
 31
0.0
  0
LINE
  5
1C4D9
330
1B896
100
AcDbEntity
  8
AM_2
100
AcDbLine
 10
4932.641018751663
 20
233.4812708487584
 30
0.0
 11
4931.301798355378
 21
231.9312708487583
 31
0.0
  0
LINE
  5
1C4DA
330
1B896
100
AcDbEntity
  8
AM_2
100
AcDbLine
 10
4931.634633884391
 20
233.0812708487583
 30
0.0
 11
4930.641018751663
 21
231.9312708487583
 31
0.0
  0
LINE
  5
1C4DB
330
1B896
100
AcDbEntity
  8
AM_2
100
AcDbLine
 10
4930.641018751663
 20
231.9312708487583
 30
0.0
 11
4931.301798355378
 21
231.9312708487583
 31
0.0
  0
LINE
  5
1C4DC
330
1B896
100
AcDbEntity
  8
AM_2
100
AcDbLine
 10
4926.641018751663
 20
227.5812708487583
 30
0.0
 11
4927.641018751663
 21
227.5812708487583
 31
0.0
  0
ARC
  5
1C4DD
330
1B896
100
AcDbEntity
  8
AM_2
100
AcDbCircle
 10
4926.641018751663
 20
228.0812708487583
 30
0.0
 40
0.5
100
AcDbArc
 50
180.0
 51
270.0
  0
LINE
  5
1C4DE
330
1B896
100
AcDbEntity
  8
AM_0
100
AcDbLine
 10
4927.641018751663
 20
232.0812708487583
 30
0.0
 11
4933.141018751663
 21
232.0812708487583
 31
0.0
  0
LINE
  5
1C4DF
330
1B896
100
AcDbEntity
  8
AM_0
100
AcDbLine
 10
4933.141018751663
 20
232.0812708487583
 30
0.0
 11
4933.141018751663
 21
235.0812708487583
 31
0.0
  0
LINE
  5
1C4E0
330
1B896
100
AcDbEntity
  8
AM_0
100
AcDbLine
 10
4926.141018751663
 20
239.9812708487583
 30
0.0
 11
4927.641018751663
 21
239.9812708487583
 31
0.0
  0
LINE
  5
1C4E1
330
1B896
100
AcDbEntity
  8
AM_0
100
AcDbLine
 10
4927.641018751663
 20
235.0812708487583
 30
0.0
 11
4933.141018751663
 21
235.0812708487583
 31
0.0
  0
LINE
  5
1C4E2
330
1B896
100
AcDbEntity
  8
AM_0
100
AcDbLine
 10
4927.641018751663
 20
235.0812708487583
 30
0.0
 11
4927.641018751663
 21
239.9812708487583
 31
0.0
  0
LINE
  5
1C4E3
330
1B896
100
AcDbEntity
  8
AM_0
100
AcDbLine
 10
4926.141018751663
 20
227.1812708487583
 30
0.0
 11
4927.641018751663
 21
227.1812708487583
 31
0.0
  0
LINE
  5
1C4E4
330
1B896
100
AcDbEntity
  8
AM_0
100
AcDbLine
 10
4927.641018751663
 20
232.0812708487583
 30
0.0
 11
4927.641018751663
 21
227.1812708487583
 31
0.0
  0
LINE
  5
1C4E5
330
1B896
100
AcDbEntity
  8
AM_0
100
AcDbLine
 10
4926.141018751663
 20
239.9812708487583
 30
0.0
 11
4926.141018751663
 21
249.0812708487583
 31
0.0
  0
TEXT
  5
1C4E7
330
1B896
100
AcDbEntity
  8
AM_5
100
AcDbText
 10
4464.472965913842
 20
356.7994193855206
 30
0.0
 40
6.0
  1
下地上枠（別途）
 41
0.9
100
AcDbText
  0
TEXT
  5
1C4E8
330
1B896
100
AcDbEntity
  8
AM_5
100
AcDbText
 10
4469.839086711535
 20
346.2484448022083
 30
0.0
 40
6.0
  1
埋込上枠（MDF:シート無し）
 41
0.9
100
AcDbText
  0
LINE
  5
1C4E9
330
1B896
100
AcDbEntity
  8
AM_5
100
AcDbLine
 10
4649.641000134762
 20
189.0812708487583
 30
0.0
 11
4649.641000134762
 21
130.3486753758232
 31
0.0
1001
ACAD_DSTYLE_DIMINSPECT
1070
   393
1070
     0
1001
ACAD
1000
DSTYLE
1002
{
1070
   174
1070
     1
1070
    40
1040
2.0
1002
}
  0
LINE
  5
1C4EA
330
1B896
100
AcDbEntity
  8
AM_5
100
AcDbLine
 10
4637.141000134762
 20
189.0812708487583
 30
0.0
 11
4637.141000134762
 21
130.3486753758232
 31
0.0
1001
ACAD_DSTYLE_DIMINSPECT
1070
   393
1070
     0
1001
ACAD
1000
DSTYLE
1002
{
1070
   174
1070
     1
1070
    40
1040
2.0
1002
}
  0
LINE
  5
1C4EB
330
1B896
100
AcDbEntity
  8
AM_5
100
AcDbLine
 10
4637.141000134762
 20
132.3486753758232
 30
0.0
 11
4613.896972192073
 21
132.3486753758232
 31
0.0
1001
ACAD_DSTYLE_DIMINSPECT
1070
   393
1070
     0
1001
ACAD
1000
DSTYLE
1002
{
1070
   174
1070
     1
1070
    40
1040
2.0
1002
}
  0
LINE
  5
1C4EC
330
1B896
100
AcDbEntity
  8
AM_5
100
AcDbLine
 10
4649.641000134762
 20
132.3486753758232
 30
0.0
 11
4637.141000134762
 21
132.3486753758232
 31
0.0
1001
ACAD_DSTYLE_DIMINSPECT
1070
   393
1070
     0
1001
ACAD
1000
DSTYLE
1002
{
1070
   174
1070
     1
1070
    40
1040
2.0
1002
}
  0
LINE
  5
1C4ED
330
1B896
100
AcDbEntity
  8
CONT_S_2
100
AcDbLine
 10
4926.141018751663
 20
242.2587146226056
 30
0.0
 11
4934.963574977815
 21
251.0812708487583
 31
0.0
1001
GENIUS_GENOBJ-N-HTC_13
1002
{
1000
OWNER
1000
GEN
1002
}
1001
GENIUS_GENODEF_13
1002
{
1000
HIER
1070
     0
1002
}
1002
{
1000
MANEDIT
1070
     0
1002
}
1002
{
1000
NOSEL
1070
     0
1002
}
1002
{
1000
BEHIND
1070
     0
1002
}
1002
{
1000
OTHER
1070
     0
1002
}
1002
{
1000
REACTOR
1002
}
1001
GENIUS_GENHATCH_13
1002
{
1000
DATA
1040
45.0
1042
2.5
1000
_U
1070
     0
1011
4935.953387710105
1021
232.3456276463623
1031
0.0
1002
}
1002
{
1000
UCS
1010
0.0
1020
0.0
1030
0.0
1010
1.0
1020
0.0
1030
0.0
1010
0.0
1020
1.0
1030
0.0
1002
}
1001
HATCHBACKGROUNDCOLOR
1071
-939524096
1000

1000

  0
LINE
  5
1C4EE
330
1B896
100
AcDbEntity
  8
CONT_S_2
100
AcDbLine
 10
4927.641018751663
 20
235.273433248367
 30
0.0
 11
4943.448856352055
 21
251.0812708487583
 31
0.0
1001
GENIUS_GENOBJ-N-HTC_13
1002
{
1000
OWNER
1000
GEN
1002
}
1001
GENIUS_GENODEF_13
1002
{
1000
HIER
1070
     0
1002
}
1002
{
1000
MANEDIT
1070
     0
1002
}
1002
{
1000
NOSEL
1070
     0
1002
}
1002
{
1000
BEHIND
1070
     0
1002
}
1002
{
1000
OTHER
1070
     0
1002
}
1002
{
1000
REACTOR
1002
}
1001
GENIUS_GENHATCH_13
1002
{
1000
DATA
1040
45.0
1042
2.5
1000
_U
1070
     0
1011
4935.953387710105
1021
232.3456276463623
1031
0.0
1002
}
1002
{
1000
UCS
1010
0.0
1020
0.0
1030
0.0
1010
1.0
1020
0.0
1030
0.0
1010
0.0
1020
1.0
1030
0.0
1002
}
1001
HATCHBACKGROUNDCOLOR
1071
-939524096
1000

1000

  0
LINE
  5
1C4EF
330
1B896
100
AcDbEntity
  8
CONT_S_2
100
AcDbLine
 10
4926.141018751663
 20
225.2881518741285
 30
0.0
 11
4932.934137726292
 21
232.0812708487583
 31
0.0
1001
GENIUS_GENOBJ-N-HTC_13
1002
{
1000
OWNER
1000
GEN
1002
}
1001
GENIUS_GENODEF_13
1002
{
1000
HIER
1070
     0
1002
}
1002
{
1000
MANEDIT
1070
     0
1002
}
1002
{
1000
NOSEL
1070
     0
1002
}
1002
{
1000
BEHIND
1070
     0
1002
}
1002
{
1000
OTHER
1070
     0
1002
}
1002
{
1000
REACTOR
1002
}
1001
GENIUS_GENHATCH_13
1002
{
1000
DATA
1040
45.0
1042
2.5
1000
_U
1070
     0
1011
4935.953387710105
1021
232.3456276463623
1031
0.0
1002
}
1002
{
1000
UCS
1010
0.0
1020
0.0
1030
0.0
1010
1.0
1020
0.0
1030
0.0
1010
0.0
1020
1.0
1030
0.0
1002
}
1001
HATCHBACKGROUNDCOLOR
1071
-939524096
1000

1000

  0
LINE
  5
1C4F0
330
1B896
100
AcDbEntity
  8
CONT_S_2
100
AcDbLine
 10
4933.141018751663
 20
232.2881518741285
 30
0.0
 11
4951.934137726292
 21
251.0812708487583
 31
0.0
1001
GENIUS_GENOBJ-N-HTC_13
1002
{
1000
OWNER
1000
GEN
1002
}
1001
GENIUS_GENODEF_13
1002
{
1000
HIER
1070
     0
1002
}
1002
{
1000
MANEDIT
1070
     0
1002
}
1002
{
1000
NOSEL
1070
     0
1002
}
1002
{
1000
BEHIND
1070
     0
1002
}
1002
{
1000
OTHER
1070
     0
1002
}
1002
{
1000
REACTOR
1002
}
1001
GENIUS_GENHATCH_13
1002
{
1000
DATA
1040
45.0
1042
2.5
1000
_U
1070
     0
1011
4935.953387710105
1021
232.3456276463623
1031
0.0
1002
}
1002
{
1000
UCS
1010
0.0
1020
0.0
1030
0.0
1010
1.0
1020
0.0
1030
0.0
1010
0.0
1020
1.0
1030
0.0
1002
}
1001
HATCHBACKGROUNDCOLOR
1071
-939524096
1000

1000

  0
LINE
  5
1C4F1
330
1B896
100
AcDbEntity
  8
CONT_S_2
100
AcDbLine
 10
4926.780218926097
 20
217.442070674324
 30
0.0
 11
4953.641018751663
 21
244.3028704998898
 31
0.0
1001
GENIUS_GENOBJ-N-HTC_13
1002
{
1000
OWNER
1000
GEN
1002
}
1001
GENIUS_GENODEF_13
1002
{
1000
HIER
1070
     0
1002
}
1002
{
1000
MANEDIT
1070
     0
1002
}
1002
{
1000
NOSEL
1070
     0
1002
}
1002
{
1000
BEHIND
1070
     0
1002
}
1002
{
1000
OTHER
1070
     0
1002
}
1002
{
1000
REACTOR
1002
}
1001
GENIUS_GENHATCH_13
1002
{
1000
DATA
1040
45.0
1042
2.5
1000
_U
1070
     0
1011
4935.953387710105
1021
232.3456276463623
1031
0.0
1002
}
1002
{
1000
UCS
1010
0.0
1020
0.0
1030
0.0
1010
1.0
1020
0.0
1030
0.0
1010
0.0
1020
1.0
1030
0.0
1002
}
1001
HATCHBACKGROUNDCOLOR
1071
-939524096
1000

1000

  0
LINE
  5
1C4F2
330
1B896
100
AcDbEntity
  8
CONT_S_2
100
AcDbLine
 10
4933.904700474769
 20
216.0812708487583
 30
0.0
 11
4953.641018751663
 21
235.8175891256513
 31
0.0
1001
GENIUS_GENOBJ-N-HTC_13
1002
{
1000
OWNER
1000
GEN
1002
}
1001
GENIUS_GENODEF_13
1002
{
1000
HIER
1070
     0
1002
}
1002
{
1000
MANEDIT
1070
     0
1002
}
1002
{
1000
NOSEL
1070
     0
1002
}
1002
{
1000
BEHIND
1070
     0
1002
}
1002
{
1000
OTHER
1070
     0
1002
}
1002
{
1000
REACTOR
1002
}
1001
GENIUS_GENHATCH_13
1002
{
1000
DATA
1040
45.0
1042
2.5
1000
_U
1070
     0
1011
4935.953387710105
1021
232.3456276463623
1031
0.0
1002
}
1002
{
1000
UCS
1010
0.0
1020
0.0
1030
0.0
1010
1.0
1020
0.0
1030
0.0
1010
0.0
1020
1.0
1030
0.0
1002
}
1001
HATCHBACKGROUNDCOLOR
1071
-939524096
1000

1000

  0
LINE
  5
1C4F3
330
1B896
100
AcDbEntity
  8
CONT_S_2
100
AcDbLine
 10
4942.389981849009
 20
216.0812708487583
 30
0.0
 11
4953.641018751663
 21
227.3323077514127
 31
0.0
1001
GENIUS_GENOBJ-N-HTC_13
1002
{
1000
OWNER
1000
GEN
1002
}
1001
GENIUS_GENODEF_13
1002
{
1000
HIER
1070
     0
1002
}
1002
{
1000
MANEDIT
1070
     0
1002
}
1002
{
1000
NOSEL
1070
     0
1002
}
1002
{
1000
BEHIND
1070
     0
1002
}
1002
{
1000
OTHER
1070
     0
1002
}
1002
{
1000
REACTOR
1002
}
1001
GENIUS_GENHATCH_13
1002
{
1000
DATA
1040
45.0
1042
2.5
1000
_U
1070
     0
1011
4935.953387710105
1021
232.3456276463623
1031
0.0
1002
}
1002
{
1000
UCS
1010
0.0
1020
0.0
1030
0.0
1010
1.0
1020
0.0
1030
0.0
1010
0.0
1020
1.0
1030
0.0
1002
}
1001
HATCHBACKGROUNDCOLOR
1071
-939524096
1000

1000

  0
LINE
  5
1C4F4
330
1B896
100
AcDbEntity
  8
CONT_S_2
100
AcDbLine
 10
4950.875263223247
 20
216.0812708487583
 30
0.0
 11
4953.641018751663
 21
218.847026377174
 31
0.0
1001
GENIUS_GENOBJ-N-HTC_13
1002
{
1000
OWNER
1000
GEN
1002
}
1001
GENIUS_GENODEF_13
1002
{
1000
HIER
1070
     0
1002
}
1002
{
1000
MANEDIT
1070
     0
1002
}
1002
{
1000
NOSEL
1070
     0
1002
}
1002
{
1000
BEHIND
1070
     0
1002
}
1002
{
1000
OTHER
1070
     0
1002
}
1002
{
1000
REACTOR
1002
}
1001
GENIUS_GENHATCH_13
1002
{
1000
DATA
1040
45.0
1042
2.5
1000
_U
1070
     0
1011
4935.953387710105
1021
232.3456276463623
1031
0.0
1002
}
1002
{
1000
UCS
1010
0.0
1020
0.0
1030
0.0
1010
1.0
1020
0.0
1030
0.0
1010
0.0
1020
1.0
1030
0.0
1002
}
1001
HATCHBACKGROUNDCOLOR
1071
-939524096
1000

1000

  0
LINE
  5
1C4F5
330
1B896
100
AcDbEntity
  8
AM_5
100
AcDbLine
 10
4913.401938781684
 20
135.8258424459142
 30
0.0
 11
4921.687653067397
 21
135.8258424459142
 31
0.0
1001
ACAD_DSTYLE_DIMINSPECT
1070
   393
1070
     0
1001
ACAD
1000
DSTYLE
1002
{
1070
   173
1070
     1
1002
}
  0
LINE
  5
1C4F6
330
1B896
100
AcDbEntity
  8
AM_5
100
AcDbLine
 10
4921.687653067397
 20
135.8258424459142
 30
0.0
 11
4928.141018751663
 21
146.3486753758233
 31
0.0
1001
ACAD_DSTYLE_DIMINSPECT
1070
   393
1070
     0
1001
ACAD
1000
DSTYLE
1002
{
1070
   173
1070
     1
1002
}
  0
LINE
  5
1C4F7
330
1B896
100
AcDbEntity
  8
AM_5
100
AcDbLine
 10
4926.141018751663
 20
216.0812708487583
 30
0.0
 11
4926.141018751663
 21
144.3486753758232
 31
0.0
1001
ACAD_DSTYLE_DIMINSPECT
1070
   393
1070
     0
1001
ACAD
1000
DSTYLE
1002
{
1070
   173
1070
     1
1002
}
  0
LINE
  5
1C4F8
330
1B896
100
AcDbEntity
  8
AM_5
100
AcDbLine
 10
4930.141018751663
 20
205.0812708487583
 30
0.0
 11
4930.141018751663
 21
144.3486753758232
 31
0.0
1001
ACAD_DSTYLE_DIMINSPECT
1070
   393
1070
     0
1001
ACAD
1000
DSTYLE
1002
{
1070
   173
1070
     1
1002
}
  0
LINE
  5
1C4F9
330
1B896
100
AcDbEntity
  8
AM_5
100
AcDbLine
 10
4926.141018751663
 20
146.3486753758233
 30
0.0
 11
4930.141018751663
 21
146.3486753758233
 31
0.0
1001
ACAD_DSTYLE_DIMINSPECT
1070
   393
1070
     0
1001
ACAD
1000
DSTYLE
1002
{
1070
   173
1070
     1
1002
}
  0
LINE
  5
1C4FA
330
1B896
100
AcDbEntity
  8
AM_5
100
AcDbLine
 10
4676.311009516644
 20
136.0870230215675
 30
0.0
 11
4668.025295230931
 21
136.0870230215675
 31
0.0
1001
ACAD_DSTYLE_DIMINSPECT
1070
   393
1070
     0
1001
ACAD
1000
DSTYLE
1002
{
1070
   173
1070
     1
1002
}
  0
LINE
  5
1C4FB
330
1B896
100
AcDbEntity
  8
AM_5
100
AcDbLine
 10
4668.025295230931
 20
136.0870230215675
 30
0.0
 11
4662.641000134762
 21
146.3486753758233
 31
0.0
1001
ACAD_DSTYLE_DIMINSPECT
1070
   393
1070
     0
1001
ACAD
1000
DSTYLE
1002
{
1070
   173
1070
     1
1002
}
  0
LINE
  5
1C4FC
330
1B896
100
AcDbEntity
  8
AM_5
100
AcDbLine
 10
4664.641000134762
 20
216.0812708487583
 30
0.0
 11
4664.641000134762
 21
144.3486753758232
 31
0.0
1001
ACAD_DSTYLE_DIMINSPECT
1070
   393
1070
     0
1001
ACAD
1000
DSTYLE
1002
{
1070
   173
1070
     1
1002
}
  0
LINE
  5
1C4FD
330
1B896
100
AcDbEntity
  8
AM_5
100
AcDbLine
 10
4660.641000134762
 20
205.0812708487583
 30
0.0
 11
4660.641000134762
 21
144.3486753758232
 31
0.0
1001
ACAD_DSTYLE_DIMINSPECT
1070
   393
1070
     0
1001
ACAD
1000
DSTYLE
1002
{
1070
   173
1070
     1
1002
}
  0
LINE
  5
1C4FE
330
1B896
100
AcDbEntity
  8
AM_5
100
AcDbLine
 10
4664.641000134762
 20
146.3486753758233
 30
0.0
 11
4660.641000134762
 21
146.3486753758233
 31
0.0
1001
ACAD_DSTYLE_DIMINSPECT
1070
   393
1070
     0
1001
ACAD
1000
DSTYLE
1002
{
1070
   173
1070
     1
1002
}
  0
TEXT
  5
1C4FF
330
1B896
100
AcDbEntity
  8
AM_5
100
AcDbText
 10
4790.629104681307
 20
120.3486753758232
 30
0.0
 40
10.0
  1
W
  7
SIMPLEX
100
AcDbText
1001
ACAD_DSTYLE_DIMINSPECT
1070
   393
1070
     0
1001
ACAD
1000
DSTYLE
1002
{
1070
   140
1040
5.0
1070
   173
1070
     1
1070
   174
1070
     1
1070
    72
1070
     0
1070
    71
1070
     0
1002
}
  0
TEXT
  5
1C500
330
1B896
100
AcDbEntity
  8
AM_5
100
AcDbText
 10
4493.553177681861
 20
122.2156378333232
 30
0.0
 40
10.0
  1
H
 50
90.0
  7
SIMPLEX
100
AcDbText
1001
ACAD_DSTYLE_DIMINSPECT
1070
   393
1070
     0
1001
ACAD
1000
DSTYLE
1002
{
1070
   140
1040
5.0
1070
   173
1070
     1
1070
    72
1070
     0
1070
    71
1070
     0
1002
}
  0
LINE
  5
1C501
330
1B896
100
AcDbEntity
  8
AM_5
100
AcDbLine
 10
4491.473178461956
 20
258.9989676230084
 30
0.0
 11
4499.633179261955
 21
258.9989676230084
 31
0.0
  0
LINE
  5
1C502
330
1B896
100
AcDbEntity
  8
AM_5
100
AcDbLine
 10
4491.593178361955
 20
259.1989675230084
 30
0.0
 11
4499.513179361955
 21
259.1989675230084
 31
0.0
  0
LINE
  5
1C503
330
1B896
100
AcDbEntity
  8
AM_5
100
AcDbLine
 10
4491.713178261956
 20
259.3989673230093
 30
0.0
 11
4499.393179561955
 21
259.3989673230093
 31
0.0
  0
LINE
  5
1C504
330
1B896
100
AcDbEntity
  8
AM_5
100
AcDbLine
 10
4491.833177161956
 20
259.5989671230086
 30
0.0
 11
4499.273179661956
 21
259.5989671230086
 31
0.0
  0
LINE
  5
1C505
330
1B896
100
AcDbEntity
  8
AM_5
100
AcDbLine
 10
4491.953177061956
 20
259.7989669230078
 30
0.0
 11
4499.153179761956
 21
259.7989669230078
 31
0.0
  0
LINE
  5
1C506
330
1B896
100
AcDbEntity
  8
AM_5
100
AcDbLine
 10
4495.553177681862
 20
265.7989711666564
 30
0.0
 11
4489.553181761955
 21
255.7989708230083
 31
0.0
  0
LINE
  5
1C507
330
1B896
100
AcDbEntity
  8
AM_5
100
AcDbLine
 10
4495.433169951955
 20
265.5989585130078
 30
0.0
 11
4495.673184971955
 21
265.5989585130078
 31
0.0
  0
LINE
  5
1C508
330
1B896
100
AcDbEntity
  8
AM_5
100
AcDbLine
 10
4495.553177681862
 20
265.7989711666564
 30
0.0
 11
4501.553177361955
 21
255.7989711230089
 31
0.0
  0
LINE
  5
1C509
330
1B896
100
AcDbEntity
  8
AM_5
100
AcDbLine
 10
4495.313174831955
 20
265.3989615630085
 30
0.0
 11
4495.793182951956
 21
265.3989615630085
 31
0.0
  0
LINE
  5
1C50A
330
1B896
100
AcDbEntity
  8
AM_5
100
AcDbLine
 10
4495.073172201955
 20
264.9989619530092
 30
0.0
 11
4496.033182721956
 21
264.9989619530092
 31
0.0
  0
LINE
  5
1C50B
330
1B896
100
AcDbEntity
  8
AM_5
100
AcDbLine
 10
4495.193174941955
 20
265.1989617630093
 30
0.0
 11
4495.913182841955
 21
265.1989617630093
 31
0.0
  0
LINE
  5
1C50C
330
1B896
100
AcDbEntity
  8
AM_5
100
AcDbLine
 10
4494.953172311955
 20
264.7989621230076
 30
0.0
 11
4496.153182611955
 21
264.7989621230076
 31
0.0
  0
LINE
  5
1C50D
330
1B896
100
AcDbEntity
  8
AM_5
100
AcDbLine
 10
4494.833172421956
 20
264.5989623230084
 30
0.0
 11
4496.273182501955
 21
264.5989623230084
 31
0.0
  0
LINE
  5
1C50E
330
1B896
100
AcDbEntity
  8
AM_5
100
AcDbLine
 10
4494.713173491955
 20
264.3989625230092
 30
0.0
 11
4496.393182381956
 21
264.3989625230092
 31
0.0
  0
LINE
  5
1C50F
330
1B896
100
AcDbEntity
  8
AM_5
100
AcDbLine
 10
4494.593173611955
 20
264.1989627230082
 30
0.0
 11
4496.513182271956
 21
264.1989627230082
 31
0.0
  0
LINE
  5
1C510
330
1B896
100
AcDbEntity
  8
AM_5
100
AcDbLine
 10
4494.473173761956
 20
263.998962923009
 30
0.0
 11
4496.633182161956
 21
263.998962923009
 31
0.0
  0
LINE
  5
1C511
330
1B896
100
AcDbEntity
  8
AM_5
100
AcDbLine
 10
4494.233173961956
 20
263.5989633230088
 30
0.0
 11
4496.873181961956
 21
263.5989633230088
 31
0.0
  0
LINE
  5
1C512
330
1B896
100
AcDbEntity
  8
AM_5
100
AcDbLine
 10
4494.353173861956
 20
263.798963123008
 30
0.0
 11
4496.753182061956
 21
263.798963123008
 31
0.0
  0
LINE
  5
1C513
330
1B896
100
AcDbEntity
  8
AM_5
100
AcDbLine
 10
4494.113174061956
 20
263.3989635230096
 30
0.0
 11
4496.993181761955
 21
263.3989635230096
 31
0.0
  0
LINE
  5
1C514
330
1B896
100
AcDbEntity
  8
AM_5
100
AcDbLine
 10
4493.993174161956
 20
263.1989636230096
 30
0.0
 11
4497.113181661955
 21
263.1989636230096
 31
0.0
  0
LINE
  5
1C515
330
1B896
100
AcDbEntity
  8
AM_5
100
AcDbLine
 10
4493.873174261954
 20
262.9989638230086
 30
0.0
 11
4497.233181561955
 21
262.9989638230086
 31
0.0
  0
LINE
  5
1C516
330
1B896
100
AcDbEntity
  8
AM_5
100
AcDbLine
 10
4493.753174361954
 20
262.7989640230075
 30
0.0
 11
4497.353181461956
 21
262.7989640230075
 31
0.0
  0
LINE
  5
1C517
330
1B896
100
AcDbEntity
  8
AM_5
100
AcDbLine
 10
4493.633174561955
 20
262.5989642230083
 30
0.0
 11
4497.473181361955
 21
262.5989642230083
 31
0.0
  0
LINE
  5
1C518
330
1B896
100
AcDbEntity
  8
AM_5
100
AcDbLine
 10
4493.513174661955
 20
262.398964423009
 30
0.0
 11
4497.593181261955
 21
262.398964423009
 31
0.0
  0
LINE
  5
1C519
330
1B896
100
AcDbEntity
  8
AM_5
100
AcDbLine
 10
4493.393174761956
 20
262.1989646230098
 30
0.0
 11
4497.713181161955
 21
262.1989646230081
 31
0.0
  0
LINE
  5
1C51A
330
1B896
100
AcDbEntity
  8
AM_5
100
AcDbLine
 10
4493.273175861954
 20
261.9989648230089
 30
0.0
 11
4497.833180961956
 21
261.9989648230089
 31
0.0
  0
LINE
  5
1C51B
330
1B896
100
AcDbEntity
  8
AM_5
100
AcDbLine
 10
4493.153175961956
 20
261.7989650230078
 30
0.0
 11
4497.953180861956
 21
261.7989650230078
 31
0.0
  0
LINE
  5
1C51C
330
1B896
100
AcDbEntity
  8
AM_5
100
AcDbLine
 10
4493.033176061955
 20
261.5989652230087
 30
0.0
 11
4498.073180761956
 21
261.5989652230087
 31
0.0
  0
LINE
  5
1C51D
330
1B896
100
AcDbEntity
  8
AM_5
100
AcDbLine
 10
4492.913176161955
 20
261.3989654230095
 30
0.0
 11
4498.193180661956
 21
261.3989654230095
 31
0.0
  0
LINE
  5
1C51E
330
1B896
100
AcDbEntity
  8
AM_5
100
AcDbLine
 10
4492.793176261955
 20
261.1989656230083
 30
0.0
 11
4498.313180561956
 21
261.1989656230083
 31
0.0
  0
LINE
  5
1C51F
330
1B896
100
AcDbEntity
  8
AM_5
100
AcDbLine
 10
4492.673176361956
 20
260.9989657230085
 30
0.0
 11
4498.433180461955
 21
260.9989657230085
 31
0.0
  0
LINE
  5
1C520
330
1B896
100
AcDbEntity
  8
AM_5
100
AcDbLine
 10
4492.553176461956
 20
260.7989659230093
 30
0.0
 11
4498.553180361955
 21
260.7989659230093
 31
0.0
  0
LINE
  5
1C521
330
1B896
100
AcDbEntity
  8
AM_5
100
AcDbLine
 10
4492.433176661956
 20
260.5989661230083
 30
0.0
 11
4498.673180161955
 21
260.5989661230083
 31
0.0
  0
LINE
  5
1C522
330
1B896
100
AcDbEntity
  8
AM_5
100
AcDbLine
 10
4492.313176761956
 20
260.3989663230091
 30
0.0
 11
4498.793180061955
 21
260.3989663230091
 31
0.0
  0
LINE
  5
1C523
330
1B896
100
AcDbEntity
  8
AM_5
100
AcDbLine
 10
4492.193176861956
 20
260.1989665230098
 30
0.0
 11
4498.913179961955
 21
260.1989665230098
 31
0.0
  0
LINE
  5
1C524
330
1B896
100
AcDbEntity
  8
AM_5
100
AcDbLine
 10
4492.073177961955
 20
259.9989667230088
 30
0.0
 11
4499.033179861956
 21
259.9989667230088
 31
0.0
  0
LINE
  5
1C525
330
1B896
100
AcDbEntity
  8
AM_5
100
AcDbLine
 10
4491.233178761955
 20
258.5989680230082
 30
0.0
 11
4499.873179061956
 21
258.5989680230082
 31
0.0
  0
LINE
  5
1C526
330
1B896
100
AcDbEntity
  8
AM_5
100
AcDbLine
 10
4491.353178561956
 20
258.7989678230091
 30
0.0
 11
4499.753179161955
 21
258.7989678230073
 31
0.0
  0
LINE
  5
1C527
330
1B896
100
AcDbEntity
  8
AM_5
100
AcDbLine
 10
4491.113178861956
 20
258.398968223009
 30
0.0
 11
4499.993178961956
 21
258.398968223009
 31
0.0
  0
LINE
  5
1C528
330
1B896
100
AcDbEntity
  8
AM_5
100
AcDbLine
 10
4490.993178961956
 20
258.1989684230098
 30
0.0
 11
4500.113178861956
 21
258.1989684230098
 31
0.0
  0
LINE
  5
1C529
330
1B896
100
AcDbEntity
  8
AM_5
100
AcDbLine
 10
4490.873179061956
 20
257.9989686230086
 30
0.0
 11
4500.233178761956
 21
257.9989686230086
 31
0.0
  0
LINE
  5
1C52A
330
1B896
100
AcDbEntity
  8
AM_5
100
AcDbLine
 10
4490.753179161956
 20
257.7989688230077
 30
0.0
 11
4500.353178561956
 21
257.7989688230077
 31
0.0
  0
LINE
  5
1C52B
330
1B896
100
AcDbEntity
  8
AM_5
100
AcDbLine
 10
4490.633179261956
 20
257.5989690230085
 30
0.0
 11
4500.473178461956
 21
257.5989690230085
 31
0.0
  0
LINE
  5
1C52C
330
1B896
100
AcDbEntity
  8
AM_5
100
AcDbLine
 10
4490.513179361956
 20
257.3989692230093
 30
0.0
 11
4500.593178361955
 21
257.3989692230093
 31
0.0
  0
LINE
  5
1C52D
330
1B896
100
AcDbEntity
  8
AM_5
100
AcDbLine
 10
4490.393179561955
 20
257.1989694230083
 30
0.0
 11
4500.713178261955
 21
257.1989694230083
 31
0.0
  0
LINE
  5
1C52E
330
1B896
100
AcDbEntity
  8
AM_5
100
AcDbLine
 10
4490.273180561955
 20
256.998969623009
 30
0.0
 11
4500.833178161955
 21
256.998969623009
 31
0.0
  0
LINE
  5
1C52F
330
1B896
100
AcDbEntity
  8
AM_5
100
AcDbLine
 10
4490.153180661955
 20
256.7989697230091
 30
0.0
 11
4500.953178061955
 21
256.7989697230091
 31
0.0
  0
LINE
  5
1C530
330
1B896
100
AcDbEntity
  8
AM_5
100
AcDbLine
 10
4490.033180861956
 20
256.5989699230081
 30
0.0
 11
4501.073177961955
 21
256.5989699230081
 31
0.0
  0
LINE
  5
1C531
330
1B896
100
AcDbEntity
  8
AM_5
100
AcDbLine
 10
4489.913180961957
 20
256.3989701230088
 30
0.0
 11
4501.193177761955
 21
256.3989701230088
 31
0.0
  0
LINE
  5
1C532
330
1B896
100
AcDbEntity
  8
AM_5
100
AcDbLine
 10
4489.793181061957
 20
256.1989703230096
 30
0.0
 11
4501.313177661956
 21
256.1989703230096
 31
0.0
  0
LINE
  5
1C533
330
1B896
100
AcDbEntity
  8
AM_5
100
AcDbLine
 10
4489.673181161954
 20
255.9989705230087
 30
0.0
 11
4501.433177561955
 21
255.9989705230087
 31
0.0
  0
LINE
  5
1C534
330
1B896
100
AcDbEntity
  8
AM_5
100
AcDbLine
 10
4489.553181261956
 20
255.7989707230075
 30
0.0
 11
4501.553177461956
 21
255.7989707230075
 31
0.0
  0
LINE
  5
1C535
330
1B896
100
AcDbEntity
  8
AM_5
100
AcDbLine
 10
4499.633174659371
 20
-7.901021552369911
 30
0.0
 11
4491.473173859372
 21
-7.901021552369911
 31
0.0
  0
LINE
  5
1C536
330
1B896
100
AcDbEntity
  8
AM_5
100
AcDbLine
 10
4499.513174759372
 20
-8.101021452369877
 30
0.0
 11
4491.593173759372
 21
-8.101021452369877
 31
0.0
  0
LINE
  5
1C537
330
1B896
100
AcDbEntity
  8
AM_5
100
AcDbLine
 10
4499.393174859372
 20
-8.301021252370901
 30
0.0
 11
4491.713173559372
 21
-8.301021252370901
 31
0.0
  0
LINE
  5
1C538
330
1B896
100
AcDbEntity
  8
AM_5
100
AcDbLine
 10
4499.273175959371
 20
-8.501021052370106
 30
0.0
 11
4491.833173459371
 21
-8.501021052370106
 31
0.0
  0
LINE
  5
1C539
330
1B896
100
AcDbEntity
  8
AM_5
100
AcDbLine
 10
4499.153176059372
 20
-8.70102085236931
 30
0.0
 11
4491.953173359372
 21
-8.70102085236931
 31
0.0
  0
LINE
  5
1C53A
330
1B896
100
AcDbEntity
  8
AM_5
100
AcDbLine
 10
4495.553175439466
 20
-14.70102509601793
 30
0.0
 11
4501.553171359371
 21
-4.701024752369903
 31
0.0
  0
LINE
  5
1C53B
330
1B896
100
AcDbEntity
  8
AM_5
100
AcDbLine
 10
4495.673183169372
 20
-14.5010124423693
 30
0.0
 11
4495.433168149371
 21
-14.5010124423693
 31
0.0
  0
LINE
  5
1C53C
330
1B896
100
AcDbEntity
  8
AM_5
100
AcDbLine
 10
4495.553175439466
 20
-14.70102509601793
 30
0.0
 11
4489.553175759373
 21
-4.701025052370368
 31
0.0
  0
LINE
  5
1C53D
330
1B896
100
AcDbEntity
  8
AM_5
100
AcDbLine
 10
4495.793178289372
 20
-14.30101549236997
 30
0.0
 11
4495.313170169372
 21
-14.30101549236997
 31
0.0
  0
LINE
  5
1C53E
330
1B896
100
AcDbEntity
  8
AM_5
100
AcDbLine
 10
4496.033180919372
 20
-13.90101588237075
 30
0.0
 11
4495.073170399371
 21
-13.90101588237075
 31
0.0
  0
LINE
  5
1C53F
330
1B896
100
AcDbEntity
  8
AM_5
100
AcDbLine
 10
4495.913178179372
 20
-14.10101569237076
 30
0.0
 11
4495.193170279372
 21
-14.10101569237076
 31
0.0
  0
LINE
  5
1C540
330
1B896
100
AcDbEntity
  8
AM_5
100
AcDbLine
 10
4496.153180809372
 20
-13.70101605236914
 30
0.0
 11
4494.953170509372
 21
-13.70101605236914
 31
0.0
  0
LINE
  5
1C541
330
1B896
100
AcDbEntity
  8
AM_5
100
AcDbLine
 10
4496.273180699371
 20
-13.50101625236993
 30
0.0
 11
4494.833170619371
 21
-13.50101625236993
 31
0.0
  0
LINE
  5
1C542
330
1B896
100
AcDbEntity
  8
AM_5
100
AcDbLine
 10
4496.393179629372
 20
-13.30101645237073
 30
0.0
 11
4494.713170739372
 21
-13.30101645237073
 31
0.0
  0
LINE
  5
1C543
330
1B896
100
AcDbEntity
  8
AM_5
100
AcDbLine
 10
4496.513179509372
 20
-13.1010166523697
 30
0.0
 11
4494.593170849372
 21
-13.1010166523697
 31
0.0
  0
LINE
  5
1C544
330
1B896
100
AcDbEntity
  8
AM_5
100
AcDbLine
 10
4496.633179359371
 20
-12.9010168523705
 30
0.0
 11
4494.473170959372
 21
-12.9010168523705
 31
0.0
  0
LINE
  5
1C545
330
1B896
100
AcDbEntity
  8
AM_5
100
AcDbLine
 10
4496.873179159371
 20
-12.50101725237027
 30
0.0
 11
4494.233171159371
 21
-12.50101725237027
 31
0.0
  0
LINE
  5
1C546
330
1B896
100
AcDbEntity
  8
AM_5
100
AcDbLine
 10
4496.753179259371
 20
-12.70101705236948
 30
0.0
 11
4494.353171059372
 21
-12.70101705236948
 31
0.0
  0
LINE
  5
1C547
330
1B896
100
AcDbEntity
  8
AM_5
100
AcDbLine
 10
4496.993179059372
 20
-12.30101745237107
 30
0.0
 11
4494.113171359372
 21
-12.30101745237107
 31
0.0
  0
LINE
  5
1C548
330
1B896
100
AcDbEntity
  8
AM_5
100
AcDbLine
 10
4497.113178959372
 20
-12.1010175523711
 30
0.0
 11
4493.993171459372
 21
-12.1010175523711
 31
0.0
  0
LINE
  5
1C549
330
1B896
100
AcDbEntity
  8
AM_5
100
AcDbLine
 10
4497.233178859372
 20
-11.90101775237008
 30
0.0
 11
4493.873171559372
 21
-11.90101775237008
 31
0.0
  0
LINE
  5
1C54A
330
1B896
100
AcDbEntity
  8
AM_5
100
AcDbLine
 10
4497.353178759372
 20
-11.70101795236905
 30
0.0
 11
4493.753171659372
 21
-11.70101795236905
 31
0.0
  0
LINE
  5
1C54B
330
1B896
100
AcDbEntity
  8
AM_5
100
AcDbLine
 10
4497.473178559372
 20
-11.50101815236985
 30
0.0
 11
4493.633171759372
 21
-11.50101815236985
 31
0.0
  0
LINE
  5
1C54C
330
1B896
100
AcDbEntity
  8
AM_5
100
AcDbLine
 10
4497.593178459372
 20
-11.30101835237064
 30
0.0
 11
4493.513171859372
 21
-11.30101835237064
 31
0.0
  0
LINE
  5
1C54D
330
1B896
100
AcDbEntity
  8
AM_5
100
AcDbLine
 10
4497.713178359371
 20
-11.10101855237144
 30
0.0
 11
4493.393171959372
 21
-11.10101855236962
 31
0.0
  0
LINE
  5
1C54E
330
1B896
100
AcDbEntity
  8
AM_5
100
AcDbLine
 10
4497.833177259372
 20
-10.90101875237041
 30
0.0
 11
4493.273172159372
 21
-10.90101875237041
 31
0.0
  0
LINE
  5
1C54F
330
1B896
100
AcDbEntity
  8
AM_5
100
AcDbLine
 10
4497.953177159372
 20
-10.70101895236939
 30
0.0
 11
4493.153172259371
 21
-10.70101895236939
 31
0.0
  0
LINE
  5
1C550
330
1B896
100
AcDbEntity
  8
AM_5
100
AcDbLine
 10
4498.073177059372
 20
-10.50101915237019
 30
0.0
 11
4493.033172359371
 21
-10.50101915237019
 31
0.0
  0
LINE
  5
1C551
330
1B896
100
AcDbEntity
  8
AM_5
100
AcDbLine
 10
4498.193176959372
 20
-10.30101935237098
 30
0.0
 11
4492.913172459372
 21
-10.30101935237098
 31
0.0
  0
LINE
  5
1C552
330
1B896
100
AcDbEntity
  8
AM_5
100
AcDbLine
 10
4498.313176859372
 20
-10.10101955236996
 30
0.0
 11
4492.793172559371
 21
-10.10101955236996
 31
0.0
  0
LINE
  5
1C553
330
1B896
100
AcDbEntity
  8
AM_5
100
AcDbLine
 10
4498.433176759372
 20
-9.901019652369996
 30
0.0
 11
4492.673172659372
 21
-9.901019652369996
 31
0.0
  0
LINE
  5
1C554
330
1B896
100
AcDbEntity
  8
AM_5
100
AcDbLine
 10
4498.553176659372
 20
-9.701019852370791
 30
0.0
 11
4492.553172759371
 21
-9.701019852370791
 31
0.0
  0
LINE
  5
1C555
330
1B896
100
AcDbEntity
  8
AM_5
100
AcDbLine
 10
4498.673176459371
 20
-9.501020052369767
 30
0.0
 11
4492.433172959372
 21
-9.501020052369767
 31
0.0
  0
LINE
  5
1C556
330
1B896
100
AcDbEntity
  8
AM_5
100
AcDbLine
 10
4498.793176359371
 20
-9.301020252370562
 30
0.0
 11
4492.313173059372
 21
-9.301020252370562
 31
0.0
  0
LINE
  5
1C557
330
1B896
100
AcDbEntity
  8
AM_5
100
AcDbLine
 10
4498.913176259371
 20
-9.101020452371358
 30
0.0
 11
4492.193173159372
 21
-9.101020452371358
 31
0.0
  0
LINE
  5
1C558
330
1B896
100
AcDbEntity
  8
AM_5
100
AcDbLine
 10
4499.033175159372
 20
-8.901020652370334
 30
0.0
 11
4492.073173259372
 21
-8.901020652370334
 31
0.0
  0
LINE
  5
1C559
330
1B896
100
AcDbEntity
  8
AM_5
100
AcDbLine
 10
4499.873174359371
 20
-7.501021952369683
 30
0.0
 11
4491.233174059372
 21
-7.501021952369683
 31
0.0
  0
LINE
  5
1C55A
330
1B896
100
AcDbEntity
  8
AM_5
100
AcDbLine
 10
4499.753174559372
 20
-7.701021752370706
 30
0.0
 11
4491.353173959372
 21
-7.701021752368887
 31
0.0
  0
LINE
  5
1C55B
330
1B896
100
AcDbEntity
  8
AM_5
100
AcDbLine
 10
4499.993174259372
 20
-7.301022152370478
 30
0.0
 11
4491.113174159372
 21
-7.301022152370478
 31
0.0
  0
LINE
  5
1C55C
330
1B896
100
AcDbEntity
  8
AM_5
100
AcDbLine
 10
4500.113174159372
 20
-7.101022352371273
 30
0.0
 11
4490.993174259372
 21
-7.101022352371273
 31
0.0
  0
LINE
  5
1C55D
330
1B896
100
AcDbEntity
  8
AM_5
100
AcDbLine
 10
4500.233174059371
 20
-6.90102255237025
 30
0.0
 11
4490.873174359371
 21
-6.90102255237025
 31
0.0
  0
LINE
  5
1C55E
330
1B896
100
AcDbEntity
  8
AM_5
100
AcDbLine
 10
4500.353173959371
 20
-6.701022752369226
 30
0.0
 11
4490.753174559372
 21
-6.701022752369226
 31
0.0
  0
LINE
  5
1C55F
330
1B896
100
AcDbEntity
  8
AM_5
100
AcDbLine
 10
4500.473173859371
 20
-6.501022952370021
 30
0.0
 11
4490.633174659371
 21
-6.501022952370021
 31
0.0
  0
LINE
  5
1C560
330
1B896
100
AcDbEntity
  8
AM_5
100
AcDbLine
 10
4500.593173759372
 20
-6.301023152370817
 30
0.0
 11
4490.513174759372
 21
-6.301023152370817
 31
0.0
  0
LINE
  5
1C561
330
1B896
100
AcDbEntity
  8
AM_5
100
AcDbLine
 10
4500.713173559372
 20
-6.101023352369793
 30
0.0
 11
4490.393174859372
 21
-6.101023352369793
 31
0.0
  0
LINE
  5
1C562
330
1B896
100
AcDbEntity
  8
AM_5
100
AcDbLine
 10
4500.833172559372
 20
-5.901023552370588
 30
0.0
 11
4490.273174959372
 21
-5.901023552370588
 31
0.0
  0
LINE
  5
1C563
330
1B896
100
AcDbEntity
  8
AM_5
100
AcDbLine
 10
4500.953172459371
 20
-5.701023652370622
 30
0.0
 11
4490.153175059372
 21
-5.701023652370622
 31
0.0
  0
LINE
  5
1C564
330
1B896
100
AcDbEntity
  8
AM_5
100
AcDbLine
 10
4501.073172259371
 20
-5.501023852369598
 30
0.0
 11
4490.033175159372
 21
-5.501023852369598
 31
0.0
  0
LINE
  5
1C565
330
1B896
100
AcDbEntity
  8
AM_5
100
AcDbLine
 10
4501.193172159371
 20
-5.301024052370394
 30
0.0
 11
4489.913175359371
 21
-5.301024052370394
 31
0.0
  0
LINE
  5
1C566
330
1B896
100
AcDbEntity
  8
AM_5
100
AcDbLine
 10
4501.313172059371
 20
-5.101024252371189
 30
0.0
 11
4489.793175459372
 21
-5.101024252371189
 31
0.0
  0
LINE
  5
1C567
330
1B896
100
AcDbEntity
  8
AM_5
100
AcDbLine
 10
4501.433171959372
 20
-4.901024452370165
 30
0.0
 11
4489.673175559372
 21
-4.901024452370165
 31
0.0
  0
LINE
  5
1C568
330
1B896
100
AcDbEntity
  8
AM_5
100
AcDbLine
 10
4501.553171859372
 20
-4.701024652369142
 30
0.0
 11
4489.553175659372
 21
-4.701024652369142
 31
0.0
  0
LINE
  5
1C569
330
1B896
100
AcDbEntity
  8
AM_5
100
AcDbLine
 10
4919.341015208015
 20
122.4286745957291
 30
0.0
 11
4919.341015208015
 21
114.2686737957291
 31
0.0
  0
LINE
  5
1C56A
330
1B896
100
AcDbEntity
  8
AM_5
100
AcDbLine
 10
4919.541015108015
 20
122.3086746957291
 30
0.0
 11
4919.541015108015
 21
114.388673695729
 31
0.0
  0
LINE
  5
1C56B
330
1B896
100
AcDbEntity
  8
AM_5
100
AcDbLine
 10
4919.741014908016
 20
122.188674795729
 30
0.0
 11
4919.741014908016
 21
114.5086734957291
 31
0.0
  0
LINE
  5
1C56C
330
1B896
100
AcDbEntity
  8
AM_5
100
AcDbLine
 10
4919.941014708015
 20
122.068675895729
 30
0.0
 11
4919.941014708015
 21
114.6286733957291
 31
0.0
  0
LINE
  5
1C56D
330
1B896
100
AcDbEntity
  8
AM_5
100
AcDbLine
 10
4920.141014508015
 20
121.9486759957291
 30
0.0
 11
4920.141014508015
 21
114.7486732957291
 31
0.0
  0
LINE
  5
1C56E
330
1B896
100
AcDbEntity
  8
AM_5
100
AcDbLine
 10
4926.141018751663
 20
118.3486753758232
 30
0.0
 11
4916.141018408016
 21
124.3486712957291
 31
0.0
  0
LINE
  5
1C56F
330
1B896
100
AcDbEntity
  8
AM_5
100
AcDbLine
 10
4925.941006098014
 20
118.4686831057291
 30
0.0
 11
4925.941006098014
 21
118.228668085729
 31
0.0
  0
LINE
  5
1C570
330
1B896
100
AcDbEntity
  8
AM_5
100
AcDbLine
 10
4926.141018751663
 20
118.3486753758232
 30
0.0
 11
4916.141018708016
 21
112.348675695729
 31
0.0
  0
LINE
  5
1C571
330
1B896
100
AcDbEntity
  8
AM_5
100
AcDbLine
 10
4925.741009148016
 20
118.588678225729
 30
0.0
 11
4925.741009148016
 21
118.108670105729
 31
0.0
  0
LINE
  5
1C572
330
1B896
100
AcDbEntity
  8
AM_5
100
AcDbLine
 10
4925.341009538016
 20
118.828680855729
 30
0.0
 11
4925.341009538016
 21
117.8686703357291
 31
0.0
  0
LINE
  5
1C573
330
1B896
100
AcDbEntity
  8
AM_5
100
AcDbLine
 10
4925.541009348016
 20
118.708678115729
 30
0.0
 11
4925.541009348016
 21
117.9886702157291
 31
0.0
  0
LINE
  5
1C574
330
1B896
100
AcDbEntity
  8
AM_5
100
AcDbLine
 10
4925.141009708014
 20
118.9486807457291
 30
0.0
 11
4925.141009708014
 21
117.748670445729
 31
0.0
  0
LINE
  5
1C575
330
1B896
100
AcDbEntity
  8
AM_5
100
AcDbLine
 10
4924.941009908015
 20
119.0686806357291
 30
0.0
 11
4924.941009908015
 21
117.6286705557289
 31
0.0
  0
LINE
  5
1C576
330
1B896
100
AcDbEntity
  8
AM_5
100
AcDbLine
 10
4924.741010108016
 20
119.1886795657291
 30
0.0
 11
4924.741010108016
 21
117.508670675729
 31
0.0
  0
LINE
  5
1C577
330
1B896
100
AcDbEntity
  8
AM_5
100
AcDbLine
 10
4924.541010308015
 20
119.3086794457291
 30
0.0
 11
4924.541010308015
 21
117.3886707857291
 31
0.0
  0
LINE
  5
1C578
330
1B896
100
AcDbEntity
  8
AM_5
100
AcDbLine
 10
4924.341010508015
 20
119.4286792957291
 30
0.0
 11
4924.341010508015
 21
117.268670895729
 31
0.0
  0
LINE
  5
1C579
330
1B896
100
AcDbEntity
  8
AM_5
100
AcDbLine
 10
4923.941010908015
 20
119.6686790957289
 30
0.0
 11
4923.941010908015
 21
117.0286710957291
 31
0.0
  0
LINE
  5
1C57A
330
1B896
100
AcDbEntity
  8
AM_5
100
AcDbLine
 10
4924.141010708015
 20
119.548679195729
 30
0.0
 11
4924.141010708015
 21
117.1486709957289
 31
0.0
  0
LINE
  5
1C57B
330
1B896
100
AcDbEntity
  8
AM_5
100
AcDbLine
 10
4923.741011108017
 20
119.7886789957291
 30
0.0
 11
4923.741011108017
 21
116.9086712957289
 31
0.0
  0
LINE
  5
1C57C
330
1B896
100
AcDbEntity
  8
AM_5
100
AcDbLine
 10
4923.541011208016
 20
119.908678895729
 30
0.0
 11
4923.541011208016
 21
116.7886713957291
 31
0.0
  0
LINE
  5
1C57D
330
1B896
100
AcDbEntity
  8
AM_5
100
AcDbLine
 10
4923.341011408015
 20
120.028678795729
 30
0.0
 11
4923.341011408015
 21
116.668671495729
 31
0.0
  0
LINE
  5
1C57E
330
1B896
100
AcDbEntity
  8
AM_5
100
AcDbLine
 10
4923.141011608014
 20
120.148678695729
 30
0.0
 11
4923.141011608014
 21
116.5486715957291
 31
0.0
  0
LINE
  5
1C57F
330
1B896
100
AcDbEntity
  8
AM_5
100
AcDbLine
 10
4922.941011808015
 20
120.2686784957289
 30
0.0
 11
4922.941011808015
 21
116.4286716957291
 31
0.0
  0
LINE
  5
1C580
330
1B896
100
AcDbEntity
  8
AM_5
100
AcDbLine
 10
4922.741012008016
 20
120.3886783957291
 30
0.0
 11
4922.741012008016
 21
116.308671795729
 31
0.0
  0
LINE
  5
1C581
330
1B896
100
AcDbEntity
  8
AM_5
100
AcDbLine
 10
4922.541012208017
 20
120.508678295729
 30
0.0
 11
4922.541012208014
 21
116.1886718957291
 31
0.0
  0
LINE
  5
1C582
330
1B896
100
AcDbEntity
  8
AM_5
100
AcDbLine
 10
4922.341012408015
 20
120.628677195729
 30
0.0
 11
4922.341012408015
 21
116.068672095729
 31
0.0
  0
LINE
  5
1C583
330
1B896
100
AcDbEntity
  8
AM_5
100
AcDbLine
 10
4922.141012608014
 20
120.748677095729
 30
0.0
 11
4922.141012608014
 21
115.9486721957291
 31
0.0
  0
LINE
  5
1C584
330
1B896
100
AcDbEntity
  8
AM_5
100
AcDbLine
 10
4921.941012808016
 20
120.868676995729
 30
0.0
 11
4921.941012808016
 21
115.8286722957291
 31
0.0
  0
LINE
  5
1C585
330
1B896
100
AcDbEntity
  8
AM_5
100
AcDbLine
 10
4921.741013008016
 20
120.988676895729
 30
0.0
 11
4921.741013008016
 21
115.708672395729
 31
0.0
  0
LINE
  5
1C586
330
1B896
100
AcDbEntity
  8
AM_5
100
AcDbLine
 10
4921.541013208015
 20
121.108676795729
 30
0.0
 11
4921.541013208015
 21
115.5886724957291
 31
0.0
  0
LINE
  5
1C587
330
1B896
100
AcDbEntity
  8
AM_5
100
AcDbLine
 10
4921.341013308015
 20
121.2286766957289
 30
0.0
 11
4921.341013308015
 21
115.4686725957291
 31
0.0
  0
LINE
  5
1C588
330
1B896
100
AcDbEntity
  8
AM_5
100
AcDbLine
 10
4921.141013508016
 20
121.348676595729
 30
0.0
 11
4921.141013508016
 21
115.348672695729
 31
0.0
  0
LINE
  5
1C589
330
1B896
100
AcDbEntity
  8
AM_5
100
AcDbLine
 10
4920.941013708015
 20
121.4686763957289
 30
0.0
 11
4920.941013708015
 21
115.2286728957291
 31
0.0
  0
LINE
  5
1C58A
330
1B896
100
AcDbEntity
  8
AM_5
100
AcDbLine
 10
4920.741013908017
 20
121.5886762957291
 30
0.0
 11
4920.741013908017
 21
115.108672995729
 31
0.0
  0
LINE
  5
1C58B
330
1B896
100
AcDbEntity
  8
AM_5
100
AcDbLine
 10
4920.541014108017
 20
121.708676195729
 30
0.0
 11
4920.541014108017
 21
114.9886730957291
 31
0.0
  0
LINE
  5
1C58C
330
1B896
100
AcDbEntity
  8
AM_5
100
AcDbLine
 10
4920.341014308015
 20
121.828675095729
 30
0.0
 11
4920.341014308015
 21
114.8686731957291
 31
0.0
  0
LINE
  5
1C58D
330
1B896
100
AcDbEntity
  8
AM_5
100
AcDbLine
 10
4918.941015608015
 20
122.668674295729
 30
0.0
 11
4918.941015608015
 21
114.028673995729
 31
0.0
  0
LINE
  5
1C58E
330
1B896
100
AcDbEntity
  8
AM_5
100
AcDbLine
 10
4919.141015408015
 20
122.548674495729
 30
0.0
 11
4919.141015408014
 21
114.148673895729
 31
0.0
  0
LINE
  5
1C58F
330
1B896
100
AcDbEntity
  8
AM_5
100
AcDbLine
 10
4918.741015808016
 20
122.788674195729
 30
0.0
 11
4918.741015808016
 21
113.9086740957291
 31
0.0
  0
LINE
  5
1C590
330
1B896
100
AcDbEntity
  8
AM_5
100
AcDbLine
 10
4918.541016008017
 20
122.9086740957291
 30
0.0
 11
4918.541016008017
 21
113.788674195729
 31
0.0
  0
LINE
  5
1C591
330
1B896
100
AcDbEntity
  8
AM_5
100
AcDbLine
 10
4918.341016208016
 20
123.0286739957291
 30
0.0
 11
4918.341016208016
 21
113.668674295729
 31
0.0
  0
LINE
  5
1C592
330
1B896
100
AcDbEntity
  8
AM_5
100
AcDbLine
 10
4918.141016408014
 20
123.148673895729
 30
0.0
 11
4918.141016408014
 21
113.548674495729
 31
0.0
  0
LINE
  5
1C593
330
1B896
100
AcDbEntity
  8
AM_5
100
AcDbLine
 10
4917.941016608015
 20
123.2686737957291
 30
0.0
 11
4917.941016608015
 21
113.428674595729
 31
0.0
  0
LINE
  5
1C594
330
1B896
100
AcDbEntity
  8
AM_5
100
AcDbLine
 10
4917.741016808015
 20
123.3886736957291
 30
0.0
 11
4917.741016808015
 21
113.3086746957291
 31
0.0
  0
LINE
  5
1C595
330
1B896
100
AcDbEntity
  8
AM_5
100
AcDbLine
 10
4917.541017008015
 20
123.5086734957291
 30
0.0
 11
4917.541017008015
 21
113.188674795729
 31
0.0
  0
LINE
  5
1C596
330
1B896
100
AcDbEntity
  8
AM_5
100
AcDbLine
 10
4917.341017208016
 20
123.6286724957291
 30
0.0
 11
4917.341017208016
 21
113.068674895729
 31
0.0
  0
LINE
  5
1C597
330
1B896
100
AcDbEntity
  8
AM_5
100
AcDbLine
 10
4917.141017308016
 20
123.7486723957291
 30
0.0
 11
4917.141017308016
 21
112.9486749957291
 31
0.0
  0
LINE
  5
1C598
330
1B896
100
AcDbEntity
  8
AM_5
100
AcDbLine
 10
4916.941017508015
 20
123.8686721957291
 30
0.0
 11
4916.941017508015
 21
112.828675095729
 31
0.0
  0
LINE
  5
1C599
330
1B896
100
AcDbEntity
  8
AM_5
100
AcDbLine
 10
4916.741017708016
 20
123.9886720957291
 30
0.0
 11
4916.741017708016
 21
112.7086752957291
 31
0.0
  0
LINE
  5
1C59A
330
1B896
100
AcDbEntity
  8
AM_5
100
AcDbLine
 10
4916.541017908016
 20
124.108671995729
 30
0.0
 11
4916.541017908016
 21
112.588675395729
 31
0.0
  0
LINE
  5
1C59B
330
1B896
100
AcDbEntity
  8
AM_5
100
AcDbLine
 10
4916.341018108015
 20
124.2286718957291
 30
0.0
 11
4916.341018108015
 21
112.468675495729
 31
0.0
  0
LINE
  5
1C59C
330
1B896
100
AcDbEntity
  8
AM_5
100
AcDbLine
 10
4916.141018308014
 20
124.3486717957291
 30
0.0
 11
4916.141018308014
 21
112.3486755957289
 31
0.0
  0
LINE
  5
1C59D
330
1B896
100
AcDbEntity
  8
AM_5
100
AcDbLine
 10
4671.44100367841
 20
114.2686761559176
 30
0.0
 11
4671.44100367841
 21
122.4286769559175
 31
0.0
  0
LINE
  5
1C59E
330
1B896
100
AcDbEntity
  8
AM_5
100
AcDbLine
 10
4671.24100377841
 20
114.3886760559175
 30
0.0
 11
4671.24100377841
 21
122.3086770559175
 31
0.0
  0
LINE
  5
1C59F
330
1B896
100
AcDbEntity
  8
AM_5
100
AcDbLine
 10
4671.041003978409
 20
114.5086759559176
 30
0.0
 11
4671.041003978409
 21
122.1886772559175
 31
0.0
  0
LINE
  5
1C5A0
330
1B896
100
AcDbEntity
  8
AM_5
100
AcDbLine
 10
4670.841004178409
 20
114.6286748559176
 30
0.0
 11
4670.841004178409
 21
122.0686773559175
 31
0.0
  0
LINE
  5
1C5A1
330
1B896
100
AcDbEntity
  8
AM_5
100
AcDbLine
 10
4670.641004378411
 20
114.7486747559175
 30
0.0
 11
4670.641004378411
 21
121.9486774559176
 31
0.0
  0
LINE
  5
1C5A2
330
1B896
100
AcDbEntity
  8
AM_5
100
AcDbLine
 10
4664.641000134762
 20
118.3486753758232
 30
0.0
 11
4674.64100047841
 21
112.3486794559175
 31
0.0
  0
LINE
  5
1C5A3
330
1B896
100
AcDbEntity
  8
AM_5
100
AcDbLine
 10
4664.841012788411
 20
118.2286676459175
 30
0.0
 11
4664.841012788411
 21
118.4686826659177
 31
0.0
  0
LINE
  5
1C5A4
330
1B896
100
AcDbEntity
  8
AM_5
100
AcDbLine
 10
4664.641000134762
 20
118.3486753758232
 30
0.0
 11
4674.64100017841
 21
124.3486750559177
 31
0.0
  0
LINE
  5
1C5A5
330
1B896
100
AcDbEntity
  8
AM_5
100
AcDbLine
 10
4665.04100973841
 20
118.1086725259175
 30
0.0
 11
4665.04100973841
 21
118.5886806459177
 31
0.0
  0
LINE
  5
1C5A6
330
1B896
100
AcDbEntity
  8
AM_5
100
AcDbLine
 10
4665.441009348409
 20
117.8686698959175
 30
0.0
 11
4665.441009348409
 21
118.8286804159176
 31
0.0
  0
LINE
  5
1C5A7
330
1B896
100
AcDbEntity
  8
AM_5
100
AcDbLine
 10
4665.241009538409
 20
117.9886726359176
 30
0.0
 11
4665.241009538409
 21
118.7086805359176
 31
0.0
  0
LINE
  5
1C5A8
330
1B896
100
AcDbEntity
  8
AM_5
100
AcDbLine
 10
4665.64100917841
 20
117.7486700059176
 30
0.0
 11
4665.64100917841
 21
118.9486803059176
 31
0.0
  0
LINE
  5
1C5A9
330
1B896
100
AcDbEntity
  8
AM_5
100
AcDbLine
 10
4665.84100897841
 20
117.6286701159175
 30
0.0
 11
4665.84100897841
 21
119.0686801959177
 31
0.0
  0
LINE
  5
1C5AA
330
1B896
100
AcDbEntity
  8
AM_5
100
AcDbLine
 10
4666.041008778409
 20
117.5086711859175
 30
0.0
 11
4666.041008778409
 21
119.1886800759176
 31
0.0
  0
LINE
  5
1C5AB
330
1B896
100
AcDbEntity
  8
AM_5
100
AcDbLine
 10
4666.24100857841
 20
117.3886713059176
 30
0.0
 11
4666.24100857841
 21
119.3086799659175
 31
0.0
  0
LINE
  5
1C5AC
330
1B896
100
AcDbEntity
  8
AM_5
100
AcDbLine
 10
4666.441008378409
 20
117.2686714559176
 30
0.0
 11
4666.441008378409
 21
119.4286798559176
 31
0.0
  0
LINE
  5
1C5AD
330
1B896
100
AcDbEntity
  8
AM_5
100
AcDbLine
 10
4666.84100797841
 20
117.0286716559176
 30
0.0
 11
4666.84100797841
 21
119.6686796559175
 31
0.0
  0
LINE
  5
1C5AE
330
1B896
100
AcDbEntity
  8
AM_5
100
AcDbLine
 10
4666.641008178411
 20
117.1486715559177
 30
0.0
 11
4666.641008178411
 21
119.5486797559176
 31
0.0
  0
LINE
  5
1C5AF
330
1B896
100
AcDbEntity
  8
AM_5
100
AcDbLine
 10
4667.041007778409
 20
116.9086717559176
 30
0.0
 11
4667.041007778409
 21
119.7886794559177
 31
0.0
  0
LINE
  5
1C5B0
330
1B896
100
AcDbEntity
  8
AM_5
100
AcDbLine
 10
4667.241007678408
 20
116.7886718559177
 30
0.0
 11
4667.241007678408
 21
119.9086793559175
 31
0.0
  0
LINE
  5
1C5B1
330
1B896
100
AcDbEntity
  8
AM_5
100
AcDbLine
 10
4667.44100747841
 20
116.6686719559176
 30
0.0
 11
4667.44100747841
 21
120.0286792559176
 31
0.0
  0
LINE
  5
1C5B2
330
1B896
100
AcDbEntity
  8
AM_5
100
AcDbLine
 10
4667.641007278411
 20
116.5486720559176
 30
0.0
 11
4667.641007278411
 21
120.1486791559176
 31
0.0
  0
LINE
  5
1C5B3
330
1B896
100
AcDbEntity
  8
AM_5
100
AcDbLine
 10
4667.84100707841
 20
116.4286722559175
 30
0.0
 11
4667.84100707841
 21
120.2686790559175
 31
0.0
  0
LINE
  5
1C5B4
330
1B896
100
AcDbEntity
  8
AM_5
100
AcDbLine
 10
4668.04100687841
 20
116.3086723559176
 30
0.0
 11
4668.04100687841
 21
120.3886789559176
 31
0.0
  0
LINE
  5
1C5B5
330
1B896
100
AcDbEntity
  8
AM_5
100
AcDbLine
 10
4668.241006678408
 20
116.1886724559177
 30
0.0
 11
4668.24100667841
 21
120.5086788559176
 31
0.0
  0
LINE
  5
1C5B6
330
1B896
100
AcDbEntity
  8
AM_5
100
AcDbLine
 10
4668.441006478411
 20
116.0686735559176
 30
0.0
 11
4668.441006478411
 21
120.6286786559176
 31
0.0
  0
LINE
  5
1C5B7
330
1B896
100
AcDbEntity
  8
AM_5
100
AcDbLine
 10
4668.641006278412
 20
115.9486736559176
 30
0.0
 11
4668.641006278412
 21
120.7486785559176
 31
0.0
  0
LINE
  5
1C5B8
330
1B896
100
AcDbEntity
  8
AM_5
100
AcDbLine
 10
4668.84100607841
 20
115.8286737559177
 30
0.0
 11
4668.84100607841
 21
120.8686784559175
 31
0.0
  0
LINE
  5
1C5B9
330
1B896
100
AcDbEntity
  8
AM_5
100
AcDbLine
 10
4669.041005878408
 20
115.7086738559175
 30
0.0
 11
4669.041005878408
 21
120.9886783559176
 31
0.0
  0
LINE
  5
1C5BA
330
1B896
100
AcDbEntity
  8
AM_5
100
AcDbLine
 10
4669.241005678411
 20
115.5886739559176
 30
0.0
 11
4669.241005678411
 21
121.1086782559176
 31
0.0
  0
LINE
  5
1C5BB
330
1B896
100
AcDbEntity
  8
AM_5
100
AcDbLine
 10
4669.44100557841
 20
115.4686740559178
 30
0.0
 11
4669.44100557841
 21
121.2286781559175
 31
0.0
  0
LINE
  5
1C5BC
330
1B896
100
AcDbEntity
  8
AM_5
100
AcDbLine
 10
4669.641005378409
 20
115.3486741559175
 30
0.0
 11
4669.641005378409
 21
121.3486780559176
 31
0.0
  0
LINE
  5
1C5BD
330
1B896
100
AcDbEntity
  8
AM_5
100
AcDbLine
 10
4669.84100517841
 20
115.2286743559178
 30
0.0
 11
4669.84100517841
 21
121.4686778559175
 31
0.0
  0
LINE
  5
1C5BE
330
1B896
100
AcDbEntity
  8
AM_5
100
AcDbLine
 10
4670.04100497841
 20
115.1086744559175
 30
0.0
 11
4670.04100497841
 21
121.5886777559176
 31
0.0
  0
LINE
  5
1C5BF
330
1B896
100
AcDbEntity
  8
AM_5
100
AcDbLine
 10
4670.241004778409
 20
114.9886745559176
 30
0.0
 11
4670.241004778409
 21
121.7086776559176
 31
0.0
  0
LINE
  5
1C5C0
330
1B896
100
AcDbEntity
  8
AM_5
100
AcDbLine
 10
4670.441004578409
 20
114.8686756559176
 30
0.0
 11
4670.441004578409
 21
121.8286775559175
 31
0.0
  0
LINE
  5
1C5C1
330
1B896
100
AcDbEntity
  8
AM_5
100
AcDbLine
 10
4671.841003278411
 20
114.0286764559176
 30
0.0
 11
4671.841003278411
 21
122.6686767559175
 31
0.0
  0
LINE
  5
1C5C2
330
1B896
100
AcDbEntity
  8
AM_5
100
AcDbLine
 10
4671.641003478409
 20
114.1486762559176
 30
0.0
 11
4671.641003478411
 21
122.5486768559177
 31
0.0
  0
LINE
  5
1C5C3
330
1B896
100
AcDbEntity
  8
AM_5
100
AcDbLine
 10
4672.041003078409
 20
113.9086765559176
 30
0.0
 11
4672.041003078409
 21
122.7886766559175
 31
0.0
  0
LINE
  5
1C5C4
330
1B896
100
AcDbEntity
  8
AM_5
100
AcDbLine
 10
4672.241002878409
 20
113.7886766559175
 30
0.0
 11
4672.241002878409
 21
122.9086765559177
 31
0.0
  0
LINE
  5
1C5C5
330
1B896
100
AcDbEntity
  8
AM_5
100
AcDbLine
 10
4672.44100267841
 20
113.6686767559176
 30
0.0
 11
4672.44100267841
 21
123.0286764559176
 31
0.0
  0
LINE
  5
1C5C6
330
1B896
100
AcDbEntity
  8
AM_5
100
AcDbLine
 10
4672.64100247841
 20
113.5486768559176
 30
0.0
 11
4672.64100247841
 21
123.1486762559177
 31
0.0
  0
LINE
  5
1C5C7
330
1B896
100
AcDbEntity
  8
AM_5
100
AcDbLine
 10
4672.84100227841
 20
113.4286769559175
 30
0.0
 11
4672.84100227841
 21
123.2686761559176
 31
0.0
  0
LINE
  5
1C5C8
330
1B896
100
AcDbEntity
  8
AM_5
100
AcDbLine
 10
4673.041002078409
 20
113.3086770559176
 30
0.0
 11
4673.041002078409
 21
123.3886760559175
 31
0.0
  0
LINE
  5
1C5C9
330
1B896
100
AcDbEntity
  8
AM_5
100
AcDbLine
 10
4673.24100187841
 20
113.1886772559175
 30
0.0
 11
4673.24100187841
 21
123.5086759559177
 31
0.0
  0
LINE
  5
1C5CA
330
1B896
100
AcDbEntity
  8
AM_5
100
AcDbLine
 10
4673.441001678409
 20
113.0686782559176
 30
0.0
 11
4673.441001678409
 21
123.6286758559177
 31
0.0
  0
LINE
  5
1C5CB
330
1B896
100
AcDbEntity
  8
AM_5
100
AcDbLine
 10
4673.641001578409
 20
112.9486783559175
 30
0.0
 11
4673.641001578409
 21
123.7486757559175
 31
0.0
  0
LINE
  5
1C5CC
330
1B896
100
AcDbEntity
  8
AM_5
100
AcDbLine
 10
4673.84100137841
 20
112.8286785559176
 30
0.0
 11
4673.84100137841
 21
123.8686756559177
 31
0.0
  0
LINE
  5
1C5CD
330
1B896
100
AcDbEntity
  8
AM_5
100
AcDbLine
 10
4674.041001178411
 20
112.7086786559176
 30
0.0
 11
4674.041001178411
 21
123.9886754559175
 31
0.0
  0
LINE
  5
1C5CE
330
1B896
100
AcDbEntity
  8
AM_5
100
AcDbLine
 10
4674.241000978408
 20
112.5886787559176
 30
0.0
 11
4674.241000978408
 21
124.1086753559177
 31
0.0
  0
LINE
  5
1C5CF
330
1B896
100
AcDbEntity
  8
AM_5
100
AcDbLine
 10
4674.44100077841
 20
112.4686788559176
 30
0.0
 11
4674.44100077841
 21
124.2286752559177
 31
0.0
  0
LINE
  5
1C5D0
330
1B896
100
AcDbEntity
  8
AM_5
100
AcDbLine
 10
4674.641000578411
 20
112.3486789559176
 30
0.0
 11
4674.641000578411
 21
124.3486751559175
 31
0.0
  0
LINE
  5
1C5D1
330
1B896
100
AcDbEntity
  8
AM_5
100
AcDbLine
 10
4664.641000134762
 20
216.0812708487583
 30
0.0
 11
4664.641000134762
 21
116.3486753758235
 31
0.0
1001
ACAD_DSTYLE_DIMINSPECT
1070
   393
1070
     0
1001
ACAD
1000
DSTYLE
1002
{
1070
   173
1070
     1
1070
   174
1070
     1
1070
    40
1040
2.0
1002
}
  0
LINE
  5
1C5D2
330
1B896
100
AcDbEntity
  8
AM_5
100
AcDbLine
 10
4637.141000134762
 20
189.0812708487583
 30
0.0
 11
4637.141000134762
 21
116.3486753758235
 31
0.0
1001
ACAD_DSTYLE_DIMINSPECT
1070
   393
1070
     0
1001
ACAD
1000
DSTYLE
1002
{
1070
   173
1070
     1
1070
   174
1070
     1
1070
    40
1040
2.0
1002
}
  0
LINE
  5
1C5D3
330
1B896
100
AcDbEntity
  8
AM_5
100
AcDbLine
 10
4664.641000134762
 20
118.3486753758235
 30
0.0
 11
4637.141000134762
 21
118.3486753758235
 31
0.0
1001
ACAD_DSTYLE_DIMINSPECT
1070
   393
1070
     0
1001
ACAD
1000
DSTYLE
1002
{
1070
   173
1070
     1
1070
   174
1070
     1
1070
    40
1040
2.0
1002
}
  0
LINE
  5
1C5D4
330
1B896
100
AcDbEntity
  8
AM_5
100
AcDbLine
 10
4660.641000134762
 20
205.0812708487583
 30
0.0
 11
4660.641000134762
 21
130.3486753758232
 31
0.0
1001
ACAD_DSTYLE_DIMINSPECT
1070
   393
1070
     0
1001
ACAD
1000
DSTYLE
1002
{
1070
   174
1070
     1
1070
    40
1040
2.0
1002
}
  0
LINE
  5
1C5D5
330
1B896
100
AcDbEntity
  8
AM_5
100
AcDbLine
 10
4649.641000134762
 20
189.0812708487583
 30
0.0
 11
4649.641000134762
 21
130.3486753758232
 31
0.0
1001
ACAD_DSTYLE_DIMINSPECT
1070
   393
1070
     0
1001
ACAD
1000
DSTYLE
1002
{
1070
   174
1070
     1
1070
    40
1040
2.0
1002
}
  0
LINE
  5
1C5D6
330
1B896
100
AcDbEntity
  8
AM_5
100
AcDbLine
 10
4660.641000134762
 20
132.3486753758232
 30
0.0
 11
4649.641000134762
 21
132.3486753758232
 31
0.0
1001
ACAD_DSTYLE_DIMINSPECT
1070
   393
1070
     0
1001
ACAD
1000
DSTYLE
1002
{
1070
   174
1070
     1
1070
    40
1040
2.0
1002
}
  0
LINE
  5
1C5D7
330
1B896
100
AcDbEntity
  8
AM_5
100
AcDbLine
 10
4668.641000134762
 20
211.0812708487583
 30
0.0
 11
4668.641000134762
 21
144.3486753758232
 31
0.0
1001
ACAD_DSTYLE_DIMINSPECT
1070
   393
1070
     0
1001
ACAD
1000
DSTYLE
1002
{
1070
   173
1070
     1
1002
}
  0
LINE
  5
1C5D8
330
1B896
100
AcDbEntity
  8
AM_5
100
AcDbLine
 10
4664.641000134762
 20
216.0812708487583
 30
0.0
 11
4664.641000134762
 21
144.3486753758232
 31
0.0
1001
ACAD_DSTYLE_DIMINSPECT
1070
   393
1070
     0
1001
ACAD
1000
DSTYLE
1002
{
1070
   173
1070
     1
1002
}
  0
LINE
  5
1C5D9
330
1B896
100
AcDbEntity
  8
AM_5
100
AcDbLine
 10
4668.641000134762
 20
146.3486753758233
 30
0.0
 11
4679.568068586046
 21
146.3486753758233
 31
0.0
1001
ACAD_DSTYLE_DIMINSPECT
1070
   393
1070
     0
1001
ACAD
1000
DSTYLE
1002
{
1070
   173
1070
     1
1002
}
  0
LINE
  5
1C5DA
330
1B896
100
AcDbEntity
  8
AM_5
100
AcDbLine
 10
4668.641000134762
 20
146.3486753758233
 30
0.0
 11
4664.641000134762
 21
146.3486753758233
 31
0.0
1001
ACAD_DSTYLE_DIMINSPECT
1070
   393
1070
     0
1001
ACAD
1000
DSTYLE
1002
{
1070
   173
1070
     1
1002
}
  0
LINE
  5
1C5DB
330
1B896
100
AcDbEntity
  8
AM_5
100
AcDbLine
 10
4953.641018751663
 20
196.5812708487583
 30
0.0
 11
4953.641018751663
 21
102.3486753758232
 31
0.0
1001
ACAD_DSTYLE_DIMINSPECT
1070
   393
1070
     0
1001
ACAD
1000
DSTYLE
1002
{
1070
    72
1070
     0
1070
    71
1070
     0
1002
}
  0
LINE
  5
1C5DC
330
1B896
100
AcDbEntity
  8
AM_5
100
AcDbLine
 10
4637.141000134762
 20
189.0812708487583
 30
0.0
 11
4637.141000134762
 21
102.3486753758232
 31
0.0
1001
ACAD_DSTYLE_DIMINSPECT
1070
   393
1070
     0
1001
ACAD
1000
DSTYLE
1002
{
1070
    72
1070
     0
1070
    71
1070
     0
1002
}
  0
LINE
  5
1C5DD
330
1B896
100
AcDbEntity
  8
AM_5
100
AcDbLine
 10
4953.641018751663
 20
104.3486753758232
 30
0.0
 11
4637.141000134762
 21
104.3486753758232
 31
0.0
1001
ACAD_DSTYLE_DIMINSPECT
1070
   393
1070
     0
1001
ACAD
1000
DSTYLE
1002
{
1070
    72
1070
     0
1070
    71
1070
     0
1002
}
  0
LINE
  5
1C5DE
330
1B896
100
AcDbEntity
  8
AM_5
100
AcDbLine
 10
4926.141018751663
 20
216.0812708487583
 30
0.0
 11
4926.141018751663
 21
116.3486753758232
 31
0.0
1001
ACAD_DSTYLE_DIMINSPECT
1070
   393
1070
     0
1001
ACAD
1000
DSTYLE
1002
{
1070
   173
1070
     1
1070
   174
1070
     1
1070
    40
1040
2.0
1002
}
  0
LINE
  5
1C5DF
330
1B896
100
AcDbEntity
  8
AM_5
100
AcDbLine
 10
4953.641018751663
 20
196.5812708487583
 30
0.0
 11
4953.641018751663
 21
116.3486753758232
 31
0.0
1001
ACAD_DSTYLE_DIMINSPECT
1070
   393
1070
     0
1001
ACAD
1000
DSTYLE
1002
{
1070
   173
1070
     1
1070
   174
1070
     1
1070
    40
1040
2.0
1002
}
  0
LINE
  5
1C5E0
330
1B896
100
AcDbEntity
  8
AM_5
100
AcDbLine
 10
4926.141018751663
 20
118.3486753758232
 30
0.0
 11
4953.641018751663
 21
118.3486753758232
 31
0.0
1001
ACAD_DSTYLE_DIMINSPECT
1070
   393
1070
     0
1001
ACAD
1000
DSTYLE
1002
{
1070
   173
1070
     1
1070
   174
1070
     1
1070
    40
1040
2.0
1002
}
  0
LINE
  5
1C5E1
330
1B896
100
AcDbEntity
  8
AM_5
100
AcDbLine
 10
4941.141018751663
 20
214.0812708487583
 30
0.0
 11
4941.141018751663
 21
130.3486753758232
 31
0.0
1001
ACAD_DSTYLE_DIMINSPECT
1070
   393
1070
     0
1001
ACAD
1000
DSTYLE
1002
{
1070
   174
1070
     1
1070
    40
1040
2.0
1002
}
  0
LINE
  5
1C5E2
330
1B896
100
AcDbEntity
  8
AM_5
100
AcDbLine
 10
4953.641018751663
 20
196.5812708487583
 30
0.0
 11
4953.641018751663
 21
130.3486753758232
 31
0.0
1001
ACAD_DSTYLE_DIMINSPECT
1070
   393
1070
     0
1001
ACAD
1000
DSTYLE
1002
{
1070
   174
1070
     1
1070
    40
1040
2.0
1002
}
  0
LINE
  5
1C5E3
330
1B896
100
AcDbEntity
  8
AM_5
100
AcDbLine
 10
4953.641018751663
 20
132.3486753758232
 30
0.0
 11
4976.185921347812
 21
132.3486753758232
 31
0.0
1001
ACAD_DSTYLE_DIMINSPECT
1070
   393
1070
     0
1001
ACAD
1000
DSTYLE
1002
{
1070
   174
1070
     1
1070
    40
1040
2.0
1002
}
  0
LINE
  5
1C5E4
330
1B896
100
AcDbEntity
  8
AM_5
100
AcDbLine
 10
4941.141018751663
 20
132.3486753758232
 30
0.0
 11
4953.641018751663
 21
132.3486753758232
 31
0.0
1001
ACAD_DSTYLE_DIMINSPECT
1070
   393
1070
     0
1001
ACAD
1000
DSTYLE
1002
{
1070
   174
1070
     1
1070
    40
1040
2.0
1002
}
  0
LINE
  5
1C5E5
330
1B896
100
AcDbEntity
  8
AM_5
100
AcDbLine
 10
4930.141018751663
 20
205.0812708487583
 30
0.0
 11
4930.141018751663
 21
130.3486753758232
 31
0.0
1001
ACAD_DSTYLE_DIMINSPECT
1070
   393
1070
     0
1001
ACAD
1000
DSTYLE
1002
{
1070
   174
1070
     1
1002
}
  0
LINE
  5
1C5E6
330
1B896
100
AcDbEntity
  8
AM_5
100
AcDbLine
 10
4941.141018751663
 20
214.0812708487583
 30
0.0
 11
4941.141018751663
 21
130.3486753758232
 31
0.0
1001
ACAD_DSTYLE_DIMINSPECT
1070
   393
1070
     0
1001
ACAD
1000
DSTYLE
1002
{
1070
   174
1070
     1
1002
}
  0
LINE
  5
1C5E7
330
1B896
100
AcDbEntity
  8
AM_5
100
AcDbLine
 10
4930.141018751663
 20
132.3486753758232
 30
0.0
 11
4941.141018751663
 21
132.3486753758232
 31
0.0
1001
ACAD_DSTYLE_DIMINSPECT
1070
   393
1070
     0
1001
ACAD
1000
DSTYLE
1002
{
1070
   174
1070
     1
1002
}
  0
LINE
  5
1C5E8
330
1B896
100
AcDbEntity
  8
AM_5
100
AcDbLine
 10
4930.141018751663
 20
205.0812708487583
 30
0.0
 11
4930.141018751663
 21
130.3486753758232
 31
0.0
1001
ACAD_DSTYLE_DIMINSPECT
1070
   393
1070
     0
1001
ACAD
1000
DSTYLE
1002
{
1070
    72
1070
     0
1070
    71
1070
     0
1002
}
  0
LINE
  5
1C5E9
330
1B896
100
AcDbEntity
  8
AM_5
100
AcDbLine
 10
4660.641000134762
 20
205.0812708487583
 30
0.0
 11
4660.641000134762
 21
130.3486753758232
 31
0.0
1001
ACAD_DSTYLE_DIMINSPECT
1070
   393
1070
     0
1001
ACAD
1000
DSTYLE
1002
{
1070
    72
1070
     0
1070
    71
1070
     0
1002
}
  0
LINE
  5
1C5EA
330
1B896
100
AcDbEntity
  8
AM_5
100
AcDbLine
 10
4930.141018751663
 20
132.3486753758232
 30
0.0
 11
4660.641000134762
 21
132.3486753758232
 31
0.0
1001
ACAD_DSTYLE_DIMINSPECT
1070
   393
1070
     0
1001
ACAD
1000
DSTYLE
1002
{
1070
    72
1070
     0
1070
    71
1070
     0
1002
}
  0
LINE
  5
1C5EB
330
1B896
100
AcDbEntity
  8
AM_5
100
AcDbLine
 10
4922.141000134762
 20
211.0812708487583
 30
0.0
 11
4922.141000134762
 21
144.3486753758232
 31
0.0
1001
ACAD_DSTYLE_DIMINSPECT
1070
   393
1070
     0
1001
ACAD
1000
DSTYLE
1002
{
1070
   170
1070
     0
1070
    72
1070
     0
1070
    71
1070
     0
1070
   173
1070
     1
1002
}
  0
LINE
  5
1C5EC
330
1B896
100
AcDbEntity
  8
AM_5
100
AcDbLine
 10
4926.141018751663
 20
216.0812708487583
 30
0.0
 11
4926.141018751663
 21
144.3486753758232
 31
0.0
1001
ACAD_DSTYLE_DIMINSPECT
1070
   393
1070
     0
1001
ACAD
1000
DSTYLE
1002
{
1070
   170
1070
     0
1070
    72
1070
     0
1070
    71
1070
     0
1070
   173
1070
     1
1002
}
  0
LINE
  5
1C5ED
330
1B896
100
AcDbEntity
  8
AM_5
100
AcDbLine
 10
4922.141000134762
 20
146.3486753758233
 30
0.0
 11
4910.850366003224
 21
146.3486753758233
 31
0.0
1001
ACAD_DSTYLE_DIMINSPECT
1070
   393
1070
     0
1001
ACAD
1000
DSTYLE
1002
{
1070
   170
1070
     0
1070
    72
1070
     0
1070
    71
1070
     0
1070
   173
1070
     1
1002
}
  0
LINE
  5
1C5EE
330
1B896
100
AcDbEntity
  8
AM_5
100
AcDbLine
 10
4922.141000134762
 20
146.3486753758233
 30
0.0
 11
4926.141018751663
 21
146.3486753758233
 31
0.0
1001
ACAD_DSTYLE_DIMINSPECT
1070
   393
1070
     0
1001
ACAD
1000
DSTYLE
1002
{
1070
   170
1070
     0
1070
    72
1070
     0
1070
    71
1070
     0
1070
   173
1070
     1
1002
}
  0
LINE
  5
1C5EF
330
1B896
100
AcDbEntity
  8
AM_5
100
AcDbLine
 10
4668.641000134762
 20
211.0812708487583
 30
0.0
 11
4668.641000134762
 21
144.3486753758232
 31
0.0
1001
ACAD_DSTYLE_DIMINSPECT
1070
   393
1070
     0
1001
ACAD
1000
DSTYLE
1002
{
1070
    72
1070
     0
1070
    71
1070
     0
1002
}
  0
LINE
  5
1C5F0
330
1B896
100
AcDbEntity
  8
AM_5
100
AcDbLine
 10
4922.141000134762
 20
211.0812708487583
 30
0.0
 11
4922.141000134762
 21
144.3486753758232
 31
0.0
1001
ACAD_DSTYLE_DIMINSPECT
1070
   393
1070
     0
1001
ACAD
1000
DSTYLE
1002
{
1070
    72
1070
     0
1070
    71
1070
     0
1002
}
  0
LINE
  5
1C5F1
330
1B896
100
AcDbEntity
  8
AM_5
100
AcDbLine
 10
4668.641000134762
 20
146.3486753758233
 30
0.0
 11
4922.141000134762
 21
146.3486753758233
 31
0.0
1001
ACAD_DSTYLE_DIMINSPECT
1070
   393
1070
     0
1001
ACAD
1000
DSTYLE
1002
{
1070
    72
1070
     0
1070
    71
1070
     0
1002
}
  0
LINE
  5
1C5F2
330
1B896
100
AcDbEntity
  8
AM_5
100
AcDbLine
 10
4670.641000134762
 20
247.0812708487583
 30
0.0
 11
4748.872009588613
 21
247.0812708487583
 31
0.0
1001
ACAD_DSTYLE_DIMINSPECT
1070
   393
1070
     0
  0
LINE
  5
1C5F3
330
1B896
100
AcDbEntity
  8
AM_5
100
AcDbLine
 10
4662.641000134762
 20
207.0812708487583
 30
0.0
 11
4748.872009588613
 21
207.0812708487583
 31
0.0
1001
ACAD_DSTYLE_DIMINSPECT
1070
   393
1070
     0
  0
LINE
  5
1C5F4
330
1B896
100
AcDbEntity
  8
AM_5
100
AcDbLine
 10
4746.872009588614
 20
247.0812708487583
 30
0.0
 11
4746.872009588614
 21
207.0812708487583
 31
0.0
1001
ACAD_DSTYLE_DIMINSPECT
1070
   393
1070
     0
  0
LINE
  5
1C5F5
330
1B896
100
AcDbEntity
  8
AM_5
100
AcDbLine
 10
4955.641018751663
 20
251.0812708487583
 30
0.0
 11
5003.259787877585
 21
251.0812708487583
 31
0.0
1001
ACAD_DSTYLE_DIMINSPECT
1070
   393
1070
     0
  0
LINE
  5
1C5F6
330
1B896
100
AcDbEntity
  8
AM_5
100
AcDbLine
 10
5000.391018751663
 20
233.5812708487583
 30
0.0
 11
5003.259787877585
 21
233.5812708487583
 31
0.0
1001
ACAD_DSTYLE_DIMINSPECT
1070
   393
1070
     0
  0
LINE
  5
1C5F7
330
1B896
100
AcDbEntity
  8
AM_5
100
AcDbLine
 10
5001.259787877584
 20
233.5812708487583
 30
0.0
 11
5001.259787877584
 21
209.9861501874644
 31
0.0
1001
ACAD_DSTYLE_DIMINSPECT
1070
   393
1070
     0
  0
LINE
  5
1C5F8
330
1B896
100
AcDbEntity
  8
AM_5
100
AcDbLine
 10
5001.259787877584
 20
251.0812708487583
 30
0.0
 11
5001.259787877584
 21
233.5812708487583
 31
0.0
1001
ACAD_DSTYLE_DIMINSPECT
1070
   393
1070
     0
  0
LINE
  5
1C5F9
330
1B896
100
AcDbEntity
  8
AM_5
100
AcDbLine
 10
4635.141000134762
 20
216.0812708487583
 30
0.0
 11
4605.589836062857
 21
216.0812708487583
 31
0.0
1001
ACAD_DSTYLE_DIMINSPECT
1070
   393
1070
     0
1001
ACAD
1000
DSTYLE
1002
{
1070
   174
1070
     1
1070
    40
1040
2.0
1002
}
  0
LINE
  5
1C5FA
330
1B896
100
AcDbEntity
  8
AM_5
100
AcDbLine
 10
4635.141000134762
 20
251.0812708487583
 30
0.0
 11
4605.589836062857
 21
251.0812708487583
 31
0.0
1001
ACAD_DSTYLE_DIMINSPECT
1070
   393
1070
     0
1001
ACAD
1000
DSTYLE
1002
{
1070
   174
1070
     1
1070
    40
1040
2.0
1002
}
  0
LINE
  5
1C5FB
330
1B896
100
AcDbEntity
  8
AM_5
100
AcDbLine
 10
4607.589836062857
 20
216.0812708487583
 30
0.0
 11
4607.589836062857
 21
251.0812708487583
 31
0.0
1001
ACAD_DSTYLE_DIMINSPECT
1070
   393
1070
     0
1001
ACAD
1000
DSTYLE
1002
{
1070
   174
1070
     1
1070
    40
1040
2.0
1002
}
  0
LINE
  5
1C5FC
330
1B896
100
AcDbEntity
  8
AM_5
100
AcDbLine
 10
4647.641000134762
 20
191.0812708487583
 30
0.0
 11
4605.589836062857
 21
191.0812708487583
 31
0.0
1001
ACAD_DSTYLE_DIMINSPECT
1070
   393
1070
     0
1001
ACAD
1000
DSTYLE
1002
{
1070
   174
1070
     1
1002
}
  0
LINE
  5
1C5FD
330
1B896
100
AcDbEntity
  8
AM_5
100
AcDbLine
 10
4635.141000134762
 20
216.0812708487583
 30
0.0
 11
4605.589836062857
 21
216.0812708487583
 31
0.0
1001
ACAD_DSTYLE_DIMINSPECT
1070
   393
1070
     0
1001
ACAD
1000
DSTYLE
1002
{
1070
   174
1070
     1
1002
}
  0
LINE
  5
1C5FE
330
1B896
100
AcDbEntity
  8
AM_5
100
AcDbLine
 10
4607.589836062857
 20
191.0812708487583
 30
0.0
 11
4607.589836062857
 21
216.0812708487583
 31
0.0
1001
ACAD_DSTYLE_DIMINSPECT
1070
   393
1070
     0
1001
ACAD
1000
DSTYLE
1002
{
1070
   174
1070
     1
1002
}
  0
LINE
  5
1C5FF
330
1B896
100
AcDbEntity
  8
AM_5
100
AcDbLine
 10
4658.641000134762
 20
213.0812708487583
 30
0.0
 11
4619.589836062856
 21
213.0812708487583
 31
0.0
1001
ACAD_DSTYLE_DIMINSPECT
1070
   393
1070
     0
  0
LINE
  5
1C600
330
1B896
100
AcDbEntity
  8
AM_5
100
AcDbLine
 10
4658.641000134762
 20
207.0812708487583
 30
0.0
 11
4619.589836062856
 21
207.0812708487583
 31
0.0
1001
ACAD_DSTYLE_DIMINSPECT
1070
   393
1070
     0
  0
LINE
  5
1C601
330
1B896
100
AcDbEntity
  8
AM_5
100
AcDbLine
 10
4621.589836062857
 20
213.0812708487583
 30
0.0
 11
4621.589836062857
 21
207.0812708487583
 31
0.0
1001
ACAD_DSTYLE_DIMINSPECT
1070
   393
1070
     0
  0
LINE
  5
1C602
330
1B896
100
AcDbEntity
  8
AM_5
100
AcDbLine
 10
4621.589836062857
 20
213.0812708487583
 30
0.0
 11
4621.589836062857
 21
215.0812708487583
 31
0.0
1001
ACAD_DSTYLE_DIMINSPECT
1070
   393
1070
     0
  0
LINE
  5
1C603
330
1B896
100
AcDbEntity
  8
AM_5
100
AcDbLine
 10
4621.589836062857
 20
207.0812708487583
 30
0.0
 11
4621.589836062857
 21
205.0812708487583
 31
0.0
1001
ACAD_DSTYLE_DIMINSPECT
1070
   393
1070
     0
  0
LINE
  5
1C604
330
1B896
100
AcDbEntity
  8
AM_5
100
AcDbLine
 10
4635.141000134762
 20
216.0812708487583
 30
0.0
 11
4619.589836062856
 21
216.0812708487583
 31
0.0
1001
ACAD_DSTYLE_DIMINSPECT
1070
   393
1070
     0
  0
LINE
  5
1C605
330
1B896
100
AcDbEntity
  8
AM_5
100
AcDbLine
 10
4658.641000134762
 20
213.0812708487583
 30
0.0
 11
4619.589836062856
 21
213.0812708487583
 31
0.0
1001
ACAD_DSTYLE_DIMINSPECT
1070
   393
1070
     0
  0
LINE
  5
1C606
330
1B896
100
AcDbEntity
  8
AM_5
100
AcDbLine
 10
4621.589836062857
 20
216.0812708487583
 30
0.0
 11
4621.589836062857
 21
227.104203359882
 31
0.0
1001
ACAD_DSTYLE_DIMINSPECT
1070
   393
1070
     0
  0
LINE
  5
1C607
330
1B896
100
AcDbEntity
  8
AM_5
100
AcDbLine
 10
4621.589836062857
 20
216.0812708487583
 30
0.0
 11
4621.589836062857
 21
213.0812708487583
 31
0.0
1001
ACAD_DSTYLE_DIMINSPECT
1070
   393
1070
     0
  0
LINE
  5
1C608
330
1B896
100
AcDbEntity
  8
AM_5
100
AcDbLine
 10
4621.589836062857
 20
213.0812708487583
 30
0.0
 11
4621.589836062857
 21
211.0812708487583
 31
0.0
1001
ACAD_DSTYLE_DIMINSPECT
1070
   393
1070
     0
  0
LINE
  5
1C609
330
1B896
100
AcDbEntity
  8
AM_5
100
AcDbLine
 10
4432.941424627448
 20
289.7989711666564
 30
0.0
 11
4511.553177681861
 21
289.7989711666564
 31
0.0
1001
ACAD_DSTYLE_DIMINSPECT
1070
   393
1070
     0
1001
ACAD
1000
DSTYLE
1002
{
1070
    72
1070
     0
1070
    71
1070
     0
1002
}
  0
LINE
  5
1C60A
330
1B896
100
AcDbEntity
  8
AM_5
100
AcDbLine
 10
4471.941424035143
 20
-14.70102883334345
 30
0.0
 11
4511.553177681861
 21
-14.70102883334345
 31
0.0
1001
ACAD_DSTYLE_DIMINSPECT
1070
   393
1070
     0
1001
ACAD
1000
DSTYLE
1002
{
1070
    72
1070
     0
1070
    71
1070
     0
1002
}
  0
LINE
  5
1C60B
330
1B896
100
AcDbEntity
  8
AM_5
100
AcDbLine
 10
4509.553177681861
 20
289.7989711666564
 30
0.0
 11
4509.553177681861
 21
-14.70102883334345
 31
0.0
1001
ACAD_DSTYLE_DIMINSPECT
1070
   393
1070
     0
1001
ACAD
1000
DSTYLE
1002
{
1070
    72
1070
     0
1070
    71
1070
     0
1002
}
  0
LINE
  5
1C60C
330
1B896
100
AcDbEntity
  8
AM_5
100
AcDbLine
 10
4493.553177681861
 20
265.7989711666564
 30
0.0
 11
4493.553177681861
 21
265.7989711666564
 31
0.0
1001
ACAD_DSTYLE_DIMINSPECT
1070
   393
1070
     0
1001
ACAD
1000
DSTYLE
1002
{
1070
   173
1070
     1
1070
   174
1070
     1
1070
    40
1040
2.0
1002
}
  0
LINE
  5
1C60D
330
1B896
100
AcDbEntity
  8
AM_5
100
AcDbLine
 10
4432.941424627448
 20
289.7989711666564
 30
0.0
 11
4497.553177681862
 21
289.7989711666564
 31
0.0
1001
ACAD_DSTYLE_DIMINSPECT
1070
   393
1070
     0
1001
ACAD
1000
DSTYLE
1002
{
1070
   173
1070
     1
1070
   174
1070
     1
1070
    40
1040
2.0
1002
}
  0
LINE
  5
1C60E
330
1B896
100
AcDbEntity
  8
AM_5
100
AcDbLine
 10
4495.553177681862
 20
265.7989711666564
 30
0.0
 11
4495.553177681862
 21
289.7989711666564
 31
0.0
1001
ACAD_DSTYLE_DIMINSPECT
1070
   393
1070
     0
1001
ACAD
1000
DSTYLE
1002
{
1070
   173
1070
     1
1070
   174
1070
     1
1070
    40
1040
2.0
1002
}
  0
LINE
  5
1C60F
330
1B896
100
AcDbEntity
  8
AM_5
100
AcDbLine
 10
4479.553177681861
 20
265.7989711666564
 30
0.0
 11
4479.553177681861
 21
265.7989711666564
 31
0.0
1001
ACAD_DSTYLE_DIMINSPECT
1070
   393
1070
     0
1001
ACAD
1000
DSTYLE
1002
{
1070
   170
1070
     0
1070
    72
1070
     0
1070
    71
1070
     0
1002
}
  0
LINE
  5
1C610
330
1B896
100
AcDbEntity
  8
AM_5
100
AcDbLine
 10
4481.535425688286
 20
278.2989711666564
 30
0.0
 11
4479.553177681861
 21
278.2989711666564
 31
0.0
1001
ACAD_DSTYLE_DIMINSPECT
1070
   393
1070
     0
1001
ACAD
1000
DSTYLE
1002
{
1070
   170
1070
     0
1070
    72
1070
     0
1070
    71
1070
     0
1002
}
  0
LINE
  5
1C611
330
1B896
100
AcDbEntity
  8
AM_5
100
AcDbLine
 10
4481.553177681862
 20
278.2989711666564
 30
0.0
 11
4481.553177681862
 21
335.1666408450262
 31
0.0
1001
ACAD_DSTYLE_DIMINSPECT
1070
   393
1070
     0
1001
ACAD
1000
DSTYLE
1002
{
1070
   170
1070
     0
1070
    72
1070
     0
1070
    71
1070
     0
1002
}
  0
LINE
  5
1C612
330
1B896
100
AcDbEntity
  8
AM_5
100
AcDbLine
 10
4481.553177681862
 20
265.7989711666564
 30
0.0
 11
4481.553177681862
 21
278.2989711666564
 31
0.0
1001
ACAD_DSTYLE_DIMINSPECT
1070
   393
1070
     0
1001
ACAD
1000
DSTYLE
1002
{
1070
   170
1070
     0
1070
    72
1070
     0
1070
    71
1070
     0
1002
}
  0
LINE
  5
1C613
330
1B896
100
AcDbEntity
  8
AM_5
100
AcDbLine
 10
4429.941424627448
 20
252.7989711666564
 30
0.0
 11
4483.553177681861
 21
252.7989711666564
 31
0.0
1001
ACAD_DSTYLE_DIMINSPECT
1070
   393
1070
     0
1001
ACAD
1000
DSTYLE
1002
{
1070
   174
1070
     1
1070
    40
1040
2.0
1002
}
  0
LINE
  5
1C614
330
1B896
100
AcDbEntity
  8
AM_5
100
AcDbLine
 10
4483.553177681861
 20
265.7989711666564
 30
0.0
 11
4483.553177681861
 21
265.7989711666564
 31
0.0
1001
ACAD_DSTYLE_DIMINSPECT
1070
   393
1070
     0
1001
ACAD
1000
DSTYLE
1002
{
1070
   174
1070
     1
1070
    40
1040
2.0
1002
}
  0
LINE
  5
1C615
330
1B896
100
AcDbEntity
  8
AM_5
100
AcDbLine
 10
4481.553177681862
 20
252.7989711666564
 30
0.0
 11
4481.553177681862
 21
265.7989711666564
 31
0.0
1001
ACAD_DSTYLE_DIMINSPECT
1070
   393
1070
     0
1001
ACAD
1000
DSTYLE
1002
{
1070
   174
1070
     1
1070
    40
1040
2.0
1002
}
  0
LINE
  5
1C616
330
1B896
100
AcDbEntity
  8
AM_5
100
AcDbLine
 10
4429.941424627448
 20
-2.701028833343571
 30
0.0
 11
4483.553177681861
 21
-2.701028833343571
 31
0.0
1001
ACAD_DSTYLE_DIMINSPECT
1070
   393
1070
     0
1001
ACAD
1000
DSTYLE
1002
{
1070
    72
1070
     0
1070
    71
1070
     0
1002
}
  0
LINE
  5
1C617
330
1B896
100
AcDbEntity
  8
AM_5
100
AcDbLine
 10
4429.941424627448
 20
252.7989711666564
 30
0.0
 11
4483.553177681861
 21
252.7989711666564
 31
0.0
1001
ACAD_DSTYLE_DIMINSPECT
1070
   393
1070
     0
1001
ACAD
1000
DSTYLE
1002
{
1070
    72
1070
     0
1070
    71
1070
     0
1002
}
  0
LINE
  5
1C618
330
1B896
100
AcDbEntity
  8
AM_5
100
AcDbLine
 10
4481.553177681862
 20
-2.701028833343571
 30
0.0
 11
4481.553177681862
 21
252.7989711666564
 31
0.0
1001
ACAD_DSTYLE_DIMINSPECT
1070
   393
1070
     0
1001
ACAD
1000
DSTYLE
1002
{
1070
    72
1070
     0
1070
    71
1070
     0
1002
}
  0
LINE
  5
1C619
330
1B896
100
AcDbEntity
  8
AM_5
100
AcDbLine
 10
4471.941424035143
 20
-14.70102883334345
 30
0.0
 11
4483.553177681861
 21
-14.70102883334345
 31
0.0
1001
ACAD_DSTYLE_DIMINSPECT
1070
   393
1070
     0
1001
ACAD
1000
DSTYLE
1002
{
1070
   174
1070
     1
1002
}
  0
LINE
  5
1C61A
330
1B896
100
AcDbEntity
  8
AM_5
100
AcDbLine
 10
4429.941424627448
 20
-2.701028833343571
 30
0.0
 11
4483.553177681861
 21
-2.701028833343571
 31
0.0
1001
ACAD_DSTYLE_DIMINSPECT
1070
   393
1070
     0
1001
ACAD
1000
DSTYLE
1002
{
1070
   174
1070
     1
1002
}
  0
LINE
  5
1C61B
330
1B896
100
AcDbEntity
  8
AM_5
100
AcDbLine
 10
4481.553177681862
 20
-14.70102883334345
 30
0.0
 11
4481.553177681862
 21
-2.701028833343571
 31
0.0
1001
ACAD_DSTYLE_DIMINSPECT
1070
   393
1070
     0
1001
ACAD
1000
DSTYLE
1002
{
1070
   174
1070
     1
1002
}
  0
LINE
  5
1C61D
330
1B896
100
AcDbEntity
  8
AM_5
100
AcDbLine
 10
4481.553177681862
 20
-2.701028833343571
 30
0.0
 11
4481.553177681862
 21
-0.7010288333435711
 31
0.0
1001
ACAD_DSTYLE_DIMINSPECT
1070
   393
1070
     0
1001
ACAD
1000
DSTYLE
1002
{
1070
   174
1070
     1
1002
}
  0
LINE
  5
1C61E
330
1B896
100
AcDbEntity
  8
AM_5
100
AcDbLine
 10
4427.941424627448
 20
219.3564830282464
 30
0.0
 11
4427.941424627448
 21
141.1306416951751
 31
0.0
1001
ACAD_DSTYLE_DIMINSPECT
1070
   393
1070
     0
1001
ACAD
1000
DSTYLE
1002
{
1070
   174
1070
     1
1070
    40
1040
2.0
1002
}
  0
LINE
  5
1C61F
330
1B896
100
AcDbEntity
  8
AM_5
100
AcDbLine
 10
4430.941424627448
 20
263.7989711666564
 30
0.0
 11
4430.941424627448
 21
141.1306416951751
 31
0.0
1001
ACAD_DSTYLE_DIMINSPECT
1070
   393
1070
     0
1001
ACAD
1000
DSTYLE
1002
{
1070
   174
1070
     1
1070
    40
1040
2.0
1002
}
  0
LINE
  5
1C620
330
1B896
100
AcDbEntity
  8
AM_5
100
AcDbLine
 10
4430.941424627448
 20
143.1306416951751
 30
0.0
 11
4440.540474102724
 21
143.1306416951751
 31
0.0
1001
ACAD_DSTYLE_DIMINSPECT
1070
   393
1070
     0
1001
ACAD
1000
DSTYLE
1002
{
1070
   174
1070
     1
1070
    40
1040
2.0
1002
}
  0
LINE
  5
1C621
330
1B896
100
AcDbEntity
  8
AM_5
100
AcDbLine
 10
4427.941424627448
 20
143.1306416951751
 30
0.0
 11
4430.941424627448
 21
143.1306416951751
 31
0.0
1001
ACAD_DSTYLE_DIMINSPECT
1070
   393
1070
     0
1001
ACAD
1000
DSTYLE
1002
{
1070
   174
1070
     1
1070
    40
1040
2.0
1002
}
  0
LINE
  5
1C622
330
1B896
100
AcDbEntity
  8
AM_5
100
AcDbLine
 10
4427.941424627448
 20
143.1306416951751
 30
0.0
 11
4425.941424627448
 21
143.1306416951751
 31
0.0
1001
ACAD_DSTYLE_DIMINSPECT
1070
   393
1070
     0
1001
ACAD
1000
DSTYLE
1002
{
1070
   174
1070
     1
1070
    40
1040
2.0
1002
}
  0
LINE
  5
1C623
330
1B896
100
AcDbEntity
  8
AM_5
100
AcDbLine
 10
4387.941424627448
 20
250.7989711666564
 30
0.0
 11
4387.941424627448
 21
141.1306416951751
 31
0.0
1001
ACAD_DSTYLE_DIMINSPECT
1070
   393
1070
     0
1001
ACAD
1000
DSTYLE
1002
{
1070
   174
1070
     1
1070
    40
1040
2.0
1002
}
  0
LINE
  5
1C624
330
1B896
100
AcDbEntity
  8
AM_5
100
AcDbLine
 10
4427.941424627448
 20
219.3564830282464
 30
0.0
 11
4427.941424627448
 21
141.1306416951751
 31
0.0
1001
ACAD_DSTYLE_DIMINSPECT
1070
   393
1070
     0
1001
ACAD
1000
DSTYLE
1002
{
1070
   174
1070
     1
1070
    40
1040
2.0
1002
}
  0
LINE
  5
1C625
330
1B896
100
AcDbEntity
  8
AM_5
100
AcDbLine
 10
4387.941424627448
 20
143.1306416951751
 30
0.0
 11
4427.941424627448
 21
143.1306416951751
 31
0.0
1001
ACAD_DSTYLE_DIMINSPECT
1070
   393
1070
     0
1001
ACAD
1000
DSTYLE
1002
{
1070
   174
1070
     1
1070
    40
1040
2.0
1002
}
  0
LINE
  5
1C626
330
1B896
100
AcDbEntity
  8
AM_5
100
AcDbLine
 10
4383.941424627447
 20
263.7989711666564
 30
0.0
 11
4383.941424627447
 21
141.1306416951751
 31
0.0
1001
ACAD_DSTYLE_DIMINSPECT
1070
   393
1070
     0
1001
ACAD
1000
DSTYLE
1002
{
1070
   174
1070
     1
1002
}
  0
LINE
  5
1C627
330
1B896
100
AcDbEntity
  8
AM_5
100
AcDbLine
 10
4387.941424627448
 20
250.7989711666564
 30
0.0
 11
4387.941424627448
 21
141.1306416951751
 31
0.0
1001
ACAD_DSTYLE_DIMINSPECT
1070
   393
1070
     0
1001
ACAD
1000
DSTYLE
1002
{
1070
   174
1070
     1
1002
}
  0
LINE
  5
1C628
330
1B896
100
AcDbEntity
  8
AM_5
100
AcDbLine
 10
4383.941424627447
 20
143.1306416951751
 30
0.0
 11
4372.913280918221
 21
143.1306416951751
 31
0.0
1001
ACAD_DSTYLE_DIMINSPECT
1070
   393
1070
     0
1001
ACAD
1000
DSTYLE
1002
{
1070
   174
1070
     1
1002
}
  0
LINE
  5
1C629
330
1B896
100
AcDbEntity
  8
AM_5
100
AcDbLine
 10
4383.941424627447
 20
143.1306416951751
 30
0.0
 11
4387.941424627448
 21
143.1306416951751
 31
0.0
1001
ACAD_DSTYLE_DIMINSPECT
1070
   393
1070
     0
1001
ACAD
1000
DSTYLE
1002
{
1070
   174
1070
     1
1002
}
  0
LINE
  5
1C62A
330
1B896
100
AcDbEntity
  8
AM_5
100
AcDbLine
 10
4289.941424627448
 20
265.7989711634904
 30
0.0
 11
4289.941424627448
 21
-14.70102883334357
 31
0.0
1001
ACAD_DSTYLE_DIMINSPECT
1070
   393
1070
     0
1001
ACAD
1000
DSTYLE
1002
{
1070
    76
1070
     1
1070
    75
1070
     1
1070
    72
1070
     0
1070
    71
1070
     0
1002
}
  0
LINE
  5
1C62B
330
1B896
100
AcDbEntity
  8
AM_5
100
AcDbLine
 10
4289.941424627448
 20
278.2989711666564
 30
0.0
 11
4289.941424627448
 21
324.6985972001947
 31
0.0
1001
ACAD_DSTYLE_DIMINSPECT
1070
   393
1070
     0
1001
ACAD
1000
DSTYLE
1002
{
1070
    76
1070
     1
1070
    75
1070
     1
1070
   174
1070
     1
1070
   170
1070
     0
1070
    72
1070
     0
1070
    71
1070
     0
1002
}
  0
LINE
  5
1C62C
330
1B896
100
AcDbEntity
  8
AM_5
100
AcDbLine
 10
4289.941424627448
 20
265.7989711666564
 30
0.0
 11
4289.941424627448
 21
278.2989711666564
 31
0.0
1001
ACAD_DSTYLE_DIMINSPECT
1070
   393
1070
     0
1001
ACAD
1000
DSTYLE
1002
{
1070
    76
1070
     1
1070
    75
1070
     1
1070
   174
1070
     1
1070
   170
1070
     0
1070
    72
1070
     0
1070
    71
1070
     0
1002
}
  0
LINE
  5
1C62D
330
1B896
100
AcDbEntity
  8
AM_5
100
AcDbLine
 10
4430.941424627448
 20
291.7989711666564
 30
0.0
 11
4430.941424627448
 21
329.7989711666564
 31
0.0
1001
ACAD_DSTYLE_DIMINSPECT
1070
   393
1070
     0
1001
ACAD
1000
DSTYLE
1002
{
1070
   174
1070
     1
1070
    40
1040
2.0
1002
}
  0
LINE
  5
1C62E
330
1B896
100
AcDbEntity
  8
AM_5
100
AcDbLine
 10
4443.941424627448
 20
280.2989711666564
 30
0.0
 11
4443.941424627448
 21
329.7989711666564
 31
0.0
1001
ACAD_DSTYLE_DIMINSPECT
1070
   393
1070
     0
1001
ACAD
1000
DSTYLE
1002
{
1070
   174
1070
     1
1070
    40
1040
2.0
1002
}
  0
LINE
  5
1C62F
330
1B896
100
AcDbEntity
  8
AM_5
100
AcDbLine
 10
4430.941424627448
 20
327.7989711666564
 30
0.0
 11
4443.941424627448
 21
327.7989711666564
 31
0.0
1001
ACAD_DSTYLE_DIMINSPECT
1070
   393
1070
     0
1001
ACAD
1000
DSTYLE
1002
{
1070
   174
1070
     1
1070
    40
1040
2.0
1002
}
  0
LINE
  5
1C630
330
1B896
100
AcDbEntity
  8
AM_5
100
AcDbLine
 10
4383.941424627447
 20
292.2989711666564
 30
0.0
 11
4383.941424627447
 21
329.7989711666564
 31
0.0
1001
ACAD_DSTYLE_DIMINSPECT
1070
   393
1070
     0
1001
ACAD
1000
DSTYLE
1002
{
1070
   174
1070
     1
1002
}
  0
LINE
  5
1C631
330
1B896
100
AcDbEntity
  8
AM_5
100
AcDbLine
 10
4430.941424627448
 20
291.7989711666564
 30
0.0
 11
4430.941424627448
 21
329.7989711666564
 31
0.0
1001
ACAD_DSTYLE_DIMINSPECT
1070
   393
1070
     0
1001
ACAD
1000
DSTYLE
1002
{
1070
   174
1070
     1
1002
}
  0
LINE
  5
1C632
330
1B896
100
AcDbEntity
  8
AM_5
100
AcDbLine
 10
4383.941424627447
 20
327.7989711666564
 30
0.0
 11
4430.941424627448
 21
327.7989711666564
 31
0.0
1001
ACAD_DSTYLE_DIMINSPECT
1070
   393
1070
     0
1001
ACAD
1000
DSTYLE
1002
{
1070
   174
1070
     1
1002
}
  0
LINE
  5
1C633
330
1B896
100
AcDbEntity
  8
AM_5
100
AcDbLine
 10
4383.941424627447
 20
292.2989711666564
 30
0.0
 11
4383.941424627447
 21
315.7989711666564
 31
0.0
1001
ACAD_DSTYLE_DIMINSPECT
1070
   393
1070
     0
  0
LINE
  5
1C634
330
1B896
100
AcDbEntity
  8
AM_5
100
AcDbLine
 10
4407.941424627447
 20
322.0613376149906
 30
0.0
 11
4407.941424627447
 21
311.7989711666564
 31
0.0
1001
ACAD_DSTYLE_DIMINSPECT
1070
   393
1070
     0
  0
LINE
  5
1C635
330
1B896
100
AcDbEntity
  8
AM_5
100
AcDbLine
 10
4383.941424627447
 20
313.7989711666564
 30
0.0
 11
4407.941424627447
 21
313.7989711666564
 31
0.0
1001
ACAD_DSTYLE_DIMINSPECT
1070
   393
1070
     0
  0
LINE
  5
1C63E
330
1B896
100
AcDbEntity
  8
CONT_S_2
100
AcDbLine
 10
4407.941424627447
 20
287.5729725723745
 30
0.0
 11
4410.16742322173
 21
289.7989711666564
 31
0.0
1001
GENIUS_GENOBJ-N-HTC_13
1002
{
1000
OWNER
1000
GEN
1002
}
1001
GENIUS_GENODEF_13
1002
{
1000
HIER
1070
     0
1002
}
1002
{
1000
MANEDIT
1070
     0
1002
}
1002
{
1000
NOSEL
1070
     0
1002
}
1002
{
1000
BEHIND
1070
     0
1002
}
1002
{
1000
OTHER
1070
     0
1002
}
1002
{
1000
REACTOR
1002
}
1001
GENIUS_GENHATCH_13
1002
{
1000
DATA
1040
45.0
1042
2.5
1000
_U
1070
     0
1011
4417.515713172099
1021
281.2571201522361
1031
0.0
1002
}
1002
{
1000
UCS
1010
0.0
1020
0.0
1030
0.0
1010
1.0
1020
0.0
1030
0.0
1010
0.0
1020
1.0
1030
0.0
1002
}
1001
HATCHBACKGROUNDCOLOR
1071
-939524096
1000

1000

  0
LINE
  5
1C63F
330
1B896
100
AcDbEntity
  8
CONT_S_2
100
AcDbLine
 10
4407.941424627447
 20
279.0876911981359
 30
0.0
 11
4418.652704595968
 21
289.7989711666564
 31
0.0
1001
GENIUS_GENOBJ-N-HTC_13
1002
{
1000
OWNER
1000
GEN
1002
}
1001
GENIUS_GENODEF_13
1002
{
1000
HIER
1070
     0
1002
}
1002
{
1000
MANEDIT
1070
     0
1002
}
1002
{
1000
NOSEL
1070
     0
1002
}
1002
{
1000
BEHIND
1070
     0
1002
}
1002
{
1000
OTHER
1070
     0
1002
}
1002
{
1000
REACTOR
1002
}
1001
GENIUS_GENHATCH_13
1002
{
1000
DATA
1040
45.0
1042
2.5
1000
_U
1070
     0
1011
4417.515713172099
1021
281.2571201522361
1031
0.0
1002
}
1002
{
1000
UCS
1010
0.0
1020
0.0
1030
0.0
1010
1.0
1020
0.0
1030
0.0
1010
0.0
1020
1.0
1030
0.0
1002
}
1001
HATCHBACKGROUNDCOLOR
1071
-939524096
1000

1000

  0
LINE
  5
1C640
330
1B896
100
AcDbEntity
  8
CONT_S_2
100
AcDbLine
 10
4407.941424627447
 20
270.6024098238973
 30
0.0
 11
4427.137985970207
 21
289.7989711666564
 31
0.0
1001
GENIUS_GENOBJ-N-HTC_13
1002
{
1000
OWNER
1000
GEN
1002
}
1001
GENIUS_GENODEF_13
1002
{
1000
HIER
1070
     0
1002
}
1002
{
1000
MANEDIT
1070
     0
1002
}
1002
{
1000
NOSEL
1070
     0
1002
}
1002
{
1000
BEHIND
1070
     0
1002
}
1002
{
1000
OTHER
1070
     0
1002
}
1002
{
1000
REACTOR
1002
}
1001
GENIUS_GENHATCH_13
1002
{
1000
DATA
1040
45.0
1042
2.5
1000
_U
1070
     0
1011
4417.515713172099
1021
281.2571201522361
1031
0.0
1002
}
1002
{
1000
UCS
1010
0.0
1020
0.0
1030
0.0
1010
1.0
1020
0.0
1030
0.0
1010
0.0
1020
1.0
1030
0.0
1002
}
1001
HATCHBACKGROUNDCOLOR
1071
-939524096
1000

1000

  0
LINE
  5
1C641
330
1B896
100
AcDbEntity
  8
CONT_S_2
100
AcDbLine
 10
4411.623267344445
 20
265.7989711666564
 30
0.0
 11
4430.941424627448
 21
285.1171284496588
 31
0.0
1001
GENIUS_GENOBJ-N-HTC_13
1002
{
1000
OWNER
1000
GEN
1002
}
1001
GENIUS_GENODEF_13
1002
{
1000
HIER
1070
     0
1002
}
1002
{
1000
MANEDIT
1070
     0
1002
}
1002
{
1000
NOSEL
1070
     0
1002
}
1002
{
1000
BEHIND
1070
     0
1002
}
1002
{
1000
OTHER
1070
     0
1002
}
1002
{
1000
REACTOR
1002
}
1001
GENIUS_GENHATCH_13
1002
{
1000
DATA
1040
45.0
1042
2.5
1000
_U
1070
     0
1011
4417.515713172099
1021
281.2571201522361
1031
0.0
1002
}
1002
{
1000
UCS
1010
0.0
1020
0.0
1030
0.0
1010
1.0
1020
0.0
1030
0.0
1010
0.0
1020
1.0
1030
0.0
1002
}
1001
HATCHBACKGROUNDCOLOR
1071
-939524096
1000

1000

  0
LINE
  5
1C642
330
1B896
100
AcDbEntity
  8
CONT_S_2
100
AcDbLine
 10
4420.108548718683
 20
265.7989711666564
 30
0.0
 11
4430.941424627448
 21
276.6318470754202
 31
0.0
1001
GENIUS_GENOBJ-N-HTC_13
1002
{
1000
OWNER
1000
GEN
1002
}
1001
GENIUS_GENODEF_13
1002
{
1000
HIER
1070
     0
1002
}
1002
{
1000
MANEDIT
1070
     0
1002
}
1002
{
1000
NOSEL
1070
     0
1002
}
1002
{
1000
BEHIND
1070
     0
1002
}
1002
{
1000
OTHER
1070
     0
1002
}
1002
{
1000
REACTOR
1002
}
1001
GENIUS_GENHATCH_13
1002
{
1000
DATA
1040
45.0
1042
2.5
1000
_U
1070
     0
1011
4417.515713172099
1021
281.2571201522361
1031
0.0
1002
}
1002
{
1000
UCS
1010
0.0
1020
0.0
1030
0.0
1010
1.0
1020
0.0
1030
0.0
1010
0.0
1020
1.0
1030
0.0
1002
}
1001
HATCHBACKGROUNDCOLOR
1071
-939524096
1000

1000

  0
LINE
  5
1C643
330
1B896
100
AcDbEntity
  8
CONT_S_2
100
AcDbLine
 10
4428.593830092923
 20
265.7989711666564
 30
0.0
 11
4430.941424627448
 21
268.1465657011816
 31
0.0
1001
GENIUS_GENOBJ-N-HTC_13
1002
{
1000
OWNER
1000
GEN
1002
}
1001
GENIUS_GENODEF_13
1002
{
1000
HIER
1070
     0
1002
}
1002
{
1000
MANEDIT
1070
     0
1002
}
1002
{
1000
NOSEL
1070
     0
1002
}
1002
{
1000
BEHIND
1070
     0
1002
}
1002
{
1000
OTHER
1070
     0
1002
}
1002
{
1000
REACTOR
1002
}
1001
GENIUS_GENHATCH_13
1002
{
1000
DATA
1040
45.0
1042
2.5
1000
_U
1070
     0
1011
4417.515713172099
1021
281.2571201522361
1031
0.0
1002
}
1002
{
1000
UCS
1010
0.0
1020
0.0
1030
0.0
1010
1.0
1020
0.0
1030
0.0
1010
0.0
1020
1.0
1030
0.0
1002
}
1001
HATCHBACKGROUNDCOLOR
1071
-939524096
1000

1000

  0
LINE
  5
1C644
330
1B896
100
AcDbEntity
  8
CONT_S_2
100
AcDbLine
 10
4383.941424627447
 20
289.02881669509
 30
0.0
 11
4384.711579099014
 21
289.7989711666564
 31
0.0
1001
GENIUS_GENOBJ-N-HTC_13
1002
{
1000
OWNER
1000
GEN
1002
}
1001
GENIUS_GENODEF_13
1002
{
1000
HIER
1070
     0
1002
}
1002
{
1000
MANEDIT
1070
     0
1002
}
1002
{
1000
NOSEL
1070
     0
1002
}
1002
{
1000
BEHIND
1070
     0
1002
}
1002
{
1000
OTHER
1070
     0
1002
}
1002
{
1000
REACTOR
1002
}
1001
GENIUS_GENHATCH_13
1002
{
1000
DATA
1040
45.0
1042
2.5
1000
_U
1070
     0
1011
4397.657565937198
1021
276.2023190378978
1031
0.0
1002
}
1002
{
1000
UCS
1010
0.0
1020
0.0
1030
0.0
1010
1.0
1020
0.0
1030
0.0
1010
0.0
1020
1.0
1030
0.0
1002
}
1001
HATCHBACKGROUNDCOLOR
1071
-939524096
1000

1000

  0
LINE
  5
1C645
330
1B896
100
AcDbEntity
  8
CONT_S_2
100
AcDbLine
 10
4383.941424627447
 20
280.5435353208514
 30
0.0
 11
4393.196860473253
 21
289.7989711666564
 31
0.0
1001
GENIUS_GENOBJ-N-HTC_13
1002
{
1000
OWNER
1000
GEN
1002
}
1001
GENIUS_GENODEF_13
1002
{
1000
HIER
1070
     0
1002
}
1002
{
1000
MANEDIT
1070
     0
1002
}
1002
{
1000
NOSEL
1070
     0
1002
}
1002
{
1000
BEHIND
1070
     0
1002
}
1002
{
1000
OTHER
1070
     0
1002
}
1002
{
1000
REACTOR
1002
}
1001
GENIUS_GENHATCH_13
1002
{
1000
DATA
1040
45.0
1042
2.5
1000
_U
1070
     0
1011
4397.657565937198
1021
276.2023190378978
1031
0.0
1002
}
1002
{
1000
UCS
1010
0.0
1020
0.0
1030
0.0
1010
1.0
1020
0.0
1030
0.0
1010
0.0
1020
1.0
1030
0.0
1002
}
1001
HATCHBACKGROUNDCOLOR
1071
-939524096
1000

1000

  0
LINE
  5
1C646
330
1B896
100
AcDbEntity
  8
CONT_S_2
100
AcDbLine
 10
4383.941424627447
 20
272.0582539466129
 30
0.0
 11
4401.682141847492
 21
289.7989711666564
 31
0.0
1001
GENIUS_GENOBJ-N-HTC_13
1002
{
1000
OWNER
1000
GEN
1002
}
1001
GENIUS_GENODEF_13
1002
{
1000
HIER
1070
     0
1002
}
1002
{
1000
MANEDIT
1070
     0
1002
}
1002
{
1000
NOSEL
1070
     0
1002
}
1002
{
1000
BEHIND
1070
     0
1002
}
1002
{
1000
OTHER
1070
     0
1002
}
1002
{
1000
REACTOR
1002
}
1001
GENIUS_GENHATCH_13
1002
{
1000
DATA
1040
45.0
1042
2.5
1000
_U
1070
     0
1011
4397.657565937198
1021
276.2023190378978
1031
0.0
1002
}
1002
{
1000
UCS
1010
0.0
1020
0.0
1030
0.0
1010
1.0
1020
0.0
1030
0.0
1010
0.0
1020
1.0
1030
0.0
1002
}
1001
HATCHBACKGROUNDCOLOR
1071
-939524096
1000

1000

  0
LINE
  5
1C647
330
1B896
100
AcDbEntity
  8
CONT_S_2
100
AcDbLine
 10
4386.16742322173
 20
265.7989711666564
 30
0.0
 11
4407.941424627447
 21
287.5729725723743
 31
0.0
1001
GENIUS_GENOBJ-N-HTC_13
1002
{
1000
OWNER
1000
GEN
1002
}
1001
GENIUS_GENODEF_13
1002
{
1000
HIER
1070
     0
1002
}
1002
{
1000
MANEDIT
1070
     0
1002
}
1002
{
1000
NOSEL
1070
     0
1002
}
1002
{
1000
BEHIND
1070
     0
1002
}
1002
{
1000
OTHER
1070
     0
1002
}
1002
{
1000
REACTOR
1002
}
1001
GENIUS_GENHATCH_13
1002
{
1000
DATA
1040
45.0
1042
2.5
1000
_U
1070
     0
1011
4397.657565937198
1021
276.2023190378978
1031
0.0
1002
}
1002
{
1000
UCS
1010
0.0
1020
0.0
1030
0.0
1010
1.0
1020
0.0
1030
0.0
1010
0.0
1020
1.0
1030
0.0
1002
}
1001
HATCHBACKGROUNDCOLOR
1071
-939524096
1000

1000

  0
LINE
  5
1C648
330
1B896
100
AcDbEntity
  8
CONT_S_2
100
AcDbLine
 10
4394.652704595968
 20
265.7989711666564
 30
0.0
 11
4407.941424627447
 21
279.0876911981357
 31
0.0
1001
GENIUS_GENOBJ-N-HTC_13
1002
{
1000
OWNER
1000
GEN
1002
}
1001
GENIUS_GENODEF_13
1002
{
1000
HIER
1070
     0
1002
}
1002
{
1000
MANEDIT
1070
     0
1002
}
1002
{
1000
NOSEL
1070
     0
1002
}
1002
{
1000
BEHIND
1070
     0
1002
}
1002
{
1000
OTHER
1070
     0
1002
}
1002
{
1000
REACTOR
1002
}
1001
GENIUS_GENHATCH_13
1002
{
1000
DATA
1040
45.0
1042
2.5
1000
_U
1070
     0
1011
4397.657565937198
1021
276.2023190378978
1031
0.0
1002
}
1002
{
1000
UCS
1010
0.0
1020
0.0
1030
0.0
1010
1.0
1020
0.0
1030
0.0
1010
0.0
1020
1.0
1030
0.0
1002
}
1001
HATCHBACKGROUNDCOLOR
1071
-939524096
1000

1000

  0
LINE
  5
1C649
330
1B896
100
AcDbEntity
  8
CONT_S_2
100
AcDbLine
 10
4403.137985970207
 20
265.7989711666564
 30
0.0
 11
4407.941424627447
 21
270.6024098238971
 31
0.0
1001
GENIUS_GENOBJ-N-HTC_13
1002
{
1000
OWNER
1000
GEN
1002
}
1001
GENIUS_GENODEF_13
1002
{
1000
HIER
1070
     0
1002
}
1002
{
1000
MANEDIT
1070
     0
1002
}
1002
{
1000
NOSEL
1070
     0
1002
}
1002
{
1000
BEHIND
1070
     0
1002
}
1002
{
1000
OTHER
1070
     0
1002
}
1002
{
1000
REACTOR
1002
}
1001
GENIUS_GENHATCH_13
1002
{
1000
DATA
1040
45.0
1042
2.5
1000
_U
1070
     0
1011
4397.657565937198
1021
276.2023190378978
1031
0.0
1002
}
1002
{
1000
UCS
1010
0.0
1020
0.0
1030
0.0
1010
1.0
1020
0.0
1030
0.0
1010
0.0
1020
1.0
1030
0.0
1002
}
1001
HATCHBACKGROUNDCOLOR
1071
-939524096
1000

1000

  0
LINE
  5
1C64A
330
1B896
100
AcDbEntity
  8
CONT_S_2
100
AcDbLine
 10
4383.941424627447
 20
441.763881431385
 30
0.0
 11
4386.458917779552
 21
444.2813745834895
 31
0.0
1001
GENIUS_GENOBJ-N-HTC_13
1002
{
1000
OWNER
1000
GEN
1002
}
1001
GENIUS_GENODEF_13
1002
{
1000
HIER
1070
     0
1002
}
1002
{
1000
MANEDIT
1070
     0
1002
}
1002
{
1000
NOSEL
1070
     0
1002
}
1002
{
1000
BEHIND
1070
     0
1002
}
1002
{
1000
OTHER
1070
     0
1002
}
1002
{
1000
REACTOR
1002
}
1001
GENIUS_GENHATCH_13
1002
{
1000
DATA
1040
45.0
1042
2.5
1000
_U
1070
     0
1011
4390.797478710595
1021
433.623268027288
1031
0.0
1002
}
1002
{
1000
UCS
1010
0.0
1020
0.0
1030
0.0
1010
1.0
1020
0.0
1030
0.0
1010
0.0
1020
1.0
1030
0.0
1002
}
1001
HATCHBACKGROUNDCOLOR
1071
-939524096
1000

1000

  0
LINE
  5
1C64B
330
1B896
100
AcDbEntity
  8
CONT_S_2
100
AcDbLine
 10
4383.941424627447
 20
433.2786000571464
 30
0.0
 11
4394.944199153791
 21
444.2813745834895
 31
0.0
1001
GENIUS_GENOBJ-N-HTC_13
1002
{
1000
OWNER
1000
GEN
1002
}
1001
GENIUS_GENODEF_13
1002
{
1000
HIER
1070
     0
1002
}
1002
{
1000
MANEDIT
1070
     0
1002
}
1002
{
1000
NOSEL
1070
     0
1002
}
1002
{
1000
BEHIND
1070
     0
1002
}
1002
{
1000
OTHER
1070
     0
1002
}
1002
{
1000
REACTOR
1002
}
1001
GENIUS_GENHATCH_13
1002
{
1000
DATA
1040
45.0
1042
2.5
1000
_U
1070
     0
1011
4390.797478710595
1021
433.623268027288
1031
0.0
1002
}
1002
{
1000
UCS
1010
0.0
1020
0.0
1030
0.0
1010
1.0
1020
0.0
1030
0.0
1010
0.0
1020
1.0
1030
0.0
1002
}
1001
HATCHBACKGROUNDCOLOR
1071
-939524096
1000

1000

  0
LINE
  5
1C64C
330
1B896
100
AcDbEntity
  8
CONT_S_2
100
AcDbLine
 10
4383.941424627447
 20
424.7933186829079
 30
0.0
 11
4403.429480528028
 21
444.2813745834895
 31
0.0
1001
GENIUS_GENOBJ-N-HTC_13
1002
{
1000
OWNER
1000
GEN
1002
}
1001
GENIUS_GENODEF_13
1002
{
1000
HIER
1070
     0
1002
}
1002
{
1000
MANEDIT
1070
     0
1002
}
1002
{
1000
NOSEL
1070
     0
1002
}
1002
{
1000
BEHIND
1070
     0
1002
}
1002
{
1000
OTHER
1070
     0
1002
}
1002
{
1000
REACTOR
1002
}
1001
GENIUS_GENHATCH_13
1002
{
1000
DATA
1040
45.0
1042
2.5
1000
_U
1070
     0
1011
4390.797478710595
1021
433.623268027288
1031
0.0
1002
}
1002
{
1000
UCS
1010
0.0
1020
0.0
1030
0.0
1010
1.0
1020
0.0
1030
0.0
1010
0.0
1020
1.0
1030
0.0
1002
}
1001
HATCHBACKGROUNDCOLOR
1071
-939524096
1000

1000

  0
LINE
  5
1C64D
330
1B896
100
AcDbEntity
  8
CONT_S_2
100
AcDbLine
 10
4387.914761902268
 20
420.2813745834903
 30
0.0
 11
4411.914761902269
 21
444.2813745834895
 31
0.0
1001
GENIUS_GENOBJ-N-HTC_13
1002
{
1000
OWNER
1000
GEN
1002
}
1001
GENIUS_GENODEF_13
1002
{
1000
HIER
1070
     0
1002
}
1002
{
1000
MANEDIT
1070
     0
1002
}
1002
{
1000
NOSEL
1070
     0
1002
}
1002
{
1000
BEHIND
1070
     0
1002
}
1002
{
1000
OTHER
1070
     0
1002
}
1002
{
1000
REACTOR
1002
}
1001
GENIUS_GENHATCH_13
1002
{
1000
DATA
1040
45.0
1042
2.5
1000
_U
1070
     0
1011
4390.797478710595
1021
433.623268027288
1031
0.0
1002
}
1002
{
1000
UCS
1010
0.0
1020
0.0
1030
0.0
1010
1.0
1020
0.0
1030
0.0
1010
0.0
1020
1.0
1030
0.0
1002
}
1001
HATCHBACKGROUNDCOLOR
1071
-939524096
1000

1000

  0
LINE
  5
1C64E
330
1B896
100
AcDbEntity
  8
CONT_S_2
100
AcDbLine
 10
4396.400043276508
 20
420.2813745834901
 30
0.0
 11
4420.400043276507
 21
444.2813745834895
 31
0.0
1001
GENIUS_GENOBJ-N-HTC_13
1002
{
1000
OWNER
1000
GEN
1002
}
1001
GENIUS_GENODEF_13
1002
{
1000
HIER
1070
     0
1002
}
1002
{
1000
MANEDIT
1070
     0
1002
}
1002
{
1000
NOSEL
1070
     0
1002
}
1002
{
1000
BEHIND
1070
     0
1002
}
1002
{
1000
OTHER
1070
     0
1002
}
1002
{
1000
REACTOR
1002
}
1001
GENIUS_GENHATCH_13
1002
{
1000
DATA
1040
45.0
1042
2.5
1000
_U
1070
     0
1011
4390.797478710595
1021
433.623268027288
1031
0.0
1002
}
1002
{
1000
UCS
1010
0.0
1020
0.0
1030
0.0
1010
1.0
1020
0.0
1030
0.0
1010
0.0
1020
1.0
1030
0.0
1002
}
1001
HATCHBACKGROUNDCOLOR
1071
-939524096
1000

1000

  0
LINE
  5
1C64F
330
1B896
100
AcDbEntity
  8
CONT_S_2
100
AcDbLine
 10
4404.885324650746
 20
420.28137458349
 30
0.0
 11
4428.885324650746
 21
444.2813745834895
 31
0.0
1001
GENIUS_GENOBJ-N-HTC_13
1002
{
1000
OWNER
1000
GEN
1002
}
1001
GENIUS_GENODEF_13
1002
{
1000
HIER
1070
     0
1002
}
1002
{
1000
MANEDIT
1070
     0
1002
}
1002
{
1000
NOSEL
1070
     0
1002
}
1002
{
1000
BEHIND
1070
     0
1002
}
1002
{
1000
OTHER
1070
     0
1002
}
1002
{
1000
REACTOR
1002
}
1001
GENIUS_GENHATCH_13
1002
{
1000
DATA
1040
45.0
1042
2.5
1000
_U
1070
     0
1011
4390.797478710595
1021
433.623268027288
1031
0.0
1002
}
1002
{
1000
UCS
1010
0.0
1020
0.0
1030
0.0
1010
1.0
1020
0.0
1030
0.0
1010
0.0
1020
1.0
1030
0.0
1002
}
1001
HATCHBACKGROUNDCOLOR
1071
-939524096
1000

1000

  0
LINE
  5
1C650
330
1B896
100
AcDbEntity
  8
CONT_S_2
100
AcDbLine
 10
4413.370606024984
 20
420.2813745834898
 30
0.0
 11
4430.941424627448
 21
437.8521931859536
 31
0.0
1001
GENIUS_GENOBJ-N-HTC_13
1002
{
1000
OWNER
1000
GEN
1002
}
1001
GENIUS_GENODEF_13
1002
{
1000
HIER
1070
     0
1002
}
1002
{
1000
MANEDIT
1070
     0
1002
}
1002
{
1000
NOSEL
1070
     0
1002
}
1002
{
1000
BEHIND
1070
     0
1002
}
1002
{
1000
OTHER
1070
     0
1002
}
1002
{
1000
REACTOR
1002
}
1001
GENIUS_GENHATCH_13
1002
{
1000
DATA
1040
45.0
1042
2.5
1000
_U
1070
     0
1011
4390.797478710595
1021
433.623268027288
1031
0.0
1002
}
1002
{
1000
UCS
1010
0.0
1020
0.0
1030
0.0
1010
1.0
1020
0.0
1030
0.0
1010
0.0
1020
1.0
1030
0.0
1002
}
1001
HATCHBACKGROUNDCOLOR
1071
-939524096
1000

1000

  0
LINE
  5
1C651
330
1B896
100
AcDbEntity
  8
CONT_S_2
100
AcDbLine
 10
4421.855887399224
 20
420.2813745834895
 30
0.0
 11
4430.941424627448
 21
429.366911811715
 31
0.0
1001
GENIUS_GENOBJ-N-HTC_13
1002
{
1000
OWNER
1000
GEN
1002
}
1001
GENIUS_GENODEF_13
1002
{
1000
HIER
1070
     0
1002
}
1002
{
1000
MANEDIT
1070
     0
1002
}
1002
{
1000
NOSEL
1070
     0
1002
}
1002
{
1000
BEHIND
1070
     0
1002
}
1002
{
1000
OTHER
1070
     0
1002
}
1002
{
1000
REACTOR
1002
}
1001
GENIUS_GENHATCH_13
1002
{
1000
DATA
1040
45.0
1042
2.5
1000
_U
1070
     0
1011
4390.797478710595
1021
433.623268027288
1031
0.0
1002
}
1002
{
1000
UCS
1010
0.0
1020
0.0
1030
0.0
1010
1.0
1020
0.0
1030
0.0
1010
0.0
1020
1.0
1030
0.0
1002
}
1001
HATCHBACKGROUNDCOLOR
1071
-939524096
1000

1000

  0
TEXT
  5
1C652
330
1B896
100
AcDbEntity
  8
AM_5
100
AcDbText
 10
4390.941424627448
 20
315.7989711666564
 30
0.0
 40
6.0
  1
24
  7
SIMPLEX
100
AcDbText
1001
ACAD_DSTYLE_DIMINSPECT
1070
   393
1070
     0
  0
CIRCLE
  5
1C653
330
1B896
100
AcDbEntity
  8
AM_5
100
AcDbCircle
 10
4407.941424627447
 20
313.7989711666564
 30
0.0
 40
0.5
  0
CIRCLE
  5
1C654
330
1B896
100
AcDbEntity
  8
AM_5
100
AcDbCircle
 10
4383.941424627447
 20
313.7989711666564
 30
0.0
 40
0.5
  0
TEXT
  5
1C655
330
1B896
100
AcDbEntity
  8
AM_5
100
AcDbText
 10
4402.584281770304
 20
329.7989711666564
 30
0.0
 40
6.0
  1
47
  7
SIMPLEX
100
AcDbText
1001
ACAD_DSTYLE_DIMINSPECT
1070
   393
1070
     0
1001
ACAD
1000
DSTYLE
1002
{
1070
   174
1070
     1
1002
}
  0
CIRCLE
  5
1C656
330
1B896
100
AcDbEntity
  8
AM_5
100
AcDbCircle
 10
4430.941424627448
 20
327.7989711666564
 30
0.0
 40
0.5
  0
CIRCLE
  5
1C657
330
1B896
100
AcDbEntity
  8
AM_5
100
AcDbCircle
 10
4383.941424627447
 20
327.7989711666564
 30
0.0
 40
0.5
  0
CIRCLE
  5
1C659
330
1B896
100
AcDbEntity
  8
AM_5
100
AcDbCircle
 10
4443.941424627448
 20
327.7989711666564
 30
0.0
 40
0.5
  0
CIRCLE
  5
1C65A
330
1B896
100
AcDbEntity
  8
AM_5
100
AcDbCircle
 10
4430.941424627448
 20
327.7989711666564
 30
0.0
 40
0.5
  0
TEXT
  5
1C65B
330
1B896
100
AcDbEntity
  8
AM_5
100
AcDbText
 10
4285.941424627448
 20
283.5557400573376
 30
0.0
 40
6.0
  1
12.5(9.5)
 50
90.0
  7
SIMPLEX
100
AcDbText
1001
ACAD_DSTYLE_DIMINSPECT
1070
   393
1070
     0
1001
ACAD
1000
DSTYLE
1002
{
1070
    76
1070
     1
1070
    75
1070
     1
1070
   174
1070
     1
1070
   170
1070
     0
1070
    72
1070
     0
1070
    71
1070
     0
1002
}
  0
CIRCLE
  5
1C65C
330
1B896
100
AcDbEntity
  8
AM_5
100
AcDbCircle
 10
4289.941424627448
 20
278.2989711666564
 30
0.0
 40
0.5
  0
CIRCLE
  5
1C65D
330
1B896
100
AcDbEntity
  8
AM_5
100
AcDbCircle
 10
4289.941424627448
 20
265.7989711666564
 30
0.0
 40
0.5
  0
TEXT
  5
1C65E
330
1B896
100
AcDbEntity
  8
AM_5
100
AcDbText
 10
4287.941424627448
 20
113.9489711650733
 30
0.0
 40
6.0
  1
PB下H
 50
90.0
  7
SIMPLEX
100
AcDbText
1001
ACAD_DSTYLE_DIMINSPECT
1070
   393
1070
     0
1001
ACAD
1000
DSTYLE
1002
{
1070
    76
1070
     1
1070
    75
1070
     1
1070
    72
1070
     0
1070
    71
1070
     0
1002
}
  0
CIRCLE
  5
1C65F
330
1B896
100
AcDbEntity
  8
AM_5
100
AcDbCircle
 10
4289.941424627448
 20
-14.70102883334357
 30
0.0
 40
0.5
  0
CIRCLE
  5
1C660
330
1B896
100
AcDbEntity
  8
AM_5
100
AcDbCircle
 10
4289.941424627448
 20
265.7989711634904
 30
0.0
 40
0.5
  0
TEXT
  5
1C661
330
1B896
100
AcDbEntity
  8
AM_5
100
AcDbText
 10
4374.913280918221
 20
145.1306416951751
 30
0.0
 40
6.0
  1
4
  7
SIMPLEX
100
AcDbText
1001
ACAD_DSTYLE_DIMINSPECT
1070
   393
1070
     0
1001
ACAD
1000
DSTYLE
1002
{
1070
   174
1070
     1
1002
}
  0
CIRCLE
  5
1C662
330
1B896
100
AcDbEntity
  8
AM_5
100
AcDbCircle
 10
4387.941424627448
 20
143.1306416951751
 30
0.0
 40
0.5
  0
CIRCLE
  5
1C663
330
1B896
100
AcDbEntity
  8
AM_5
100
AcDbCircle
 10
4383.941424627447
 20
143.1306416951751
 30
0.0
 40
0.5
  0
TEXT
  5
1C664
330
1B896
100
AcDbEntity
  8
AM_5
100
AcDbText
 10
4403.084281770305
 20
145.1306416951751
 30
0.0
 40
6.0
  1
40
  7
SIMPLEX
100
AcDbText
1001
ACAD_DSTYLE_DIMINSPECT
1070
   393
1070
     0
1001
ACAD
1000
DSTYLE
1002
{
1070
   174
1070
     1
1070
    40
1040
2.0
1002
}
  0
CIRCLE
  5
1C665
330
1B896
100
AcDbEntity
  8
AM_5
100
AcDbCircle
 10
4427.941424627448
 20
143.1306416951751
 30
0.0
 40
0.5
  0
CIRCLE
  5
1C666
330
1B896
100
AcDbEntity
  8
AM_5
100
AcDbCircle
 10
4387.941424627448
 20
143.1306416951751
 30
0.0
 40
0.5
  0
TEXT
  5
1C667
330
1B896
100
AcDbEntity
  8
AM_5
100
AcDbText
 10
4434.540474102724
 20
145.1306416951751
 30
0.0
 40
6.0
  1
3
  7
SIMPLEX
100
AcDbText
1001
ACAD_DSTYLE_DIMINSPECT
1070
   393
1070
     0
1001
ACAD
1000
DSTYLE
1002
{
1070
   174
1070
     1
1070
    40
1040
2.0
1002
}
  0
CIRCLE
  5
1C668
330
1B896
100
AcDbEntity
  8
AM_5
100
AcDbCircle
 10
4430.941424627448
 20
143.1306416951751
 30
0.0
 40
0.5
  0
CIRCLE
  5
1C669
330
1B896
100
AcDbEntity
  8
AM_5
100
AcDbCircle
 10
4427.941424627448
 20
143.1306416951751
 30
0.0
 40
0.5
  0
TEXT
  5
1C66A
330
1B896
100
AcDbEntity
  8
AM_5
100
AcDbText
 10
4479.553177681861
 20
-12.98674311905847
 30
0.0
 40
6.0
  1
12
 50
90.0
  7
SIMPLEX
100
AcDbText
1001
ACAD_DSTYLE_DIMINSPECT
1070
   393
1070
     0
1001
ACAD
1000
DSTYLE
1002
{
1070
   174
1070
     1
1002
}
  0
CIRCLE
  5
1C66B
330
1B896
100
AcDbEntity
  8
AM_5
100
AcDbCircle
 10
4481.553177681862
 20
-2.701028833343571
 30
0.0
 40
0.5
  0
CIRCLE
  5
1C66C
330
1B896
100
AcDbEntity
  8
AM_5
100
AcDbCircle
 10
4481.553177681862
 20
-14.70102883334345
 30
0.0
 40
0.5
  0
TEXT
  5
1C66D
330
1B896
100
AcDbEntity
  8
AM_5
100
AcDbText
 10
4479.553177681861
 20
84.89897116665657
 30
0.0
 40
6.0
  1
ドアH（DH）＝H-25
 50
90.0
  7
SIMPLEX
100
AcDbText
1001
ACAD_DSTYLE_DIMINSPECT
1070
   393
1070
     0
1001
ACAD
1000
DSTYLE
1002
{
1070
    72
1070
     0
1070
    71
1070
     0
1002
}
  0
CIRCLE
  5
1C66E
330
1B896
100
AcDbEntity
  8
AM_5
100
AcDbCircle
 10
4481.553177681862
 20
252.7989711666564
 30
0.0
 40
0.5
  0
CIRCLE
  5
1C66F
330
1B896
100
AcDbEntity
  8
AM_5
100
AcDbCircle
 10
4481.553177681862
 20
-2.701028833343571
 30
0.0
 40
0.5
  0
TEXT
  5
1C670
330
1B896
100
AcDbEntity
  8
AM_5
100
AcDbText
 10
4479.553177681861
 20
255.0132568809415
 30
0.0
 40
6.0
  1
13
 50
90.0
  7
SIMPLEX
100
AcDbText
1001
ACAD_DSTYLE_DIMINSPECT
1070
   393
1070
     0
1001
ACAD
1000
DSTYLE
1002
{
1070
   174
1070
     1
1070
    40
1040
2.0
1002
}
  0
CIRCLE
  5
1C671
330
1B896
100
AcDbEntity
  8
AM_5
100
AcDbCircle
 10
4481.553177681862
 20
265.7989711666564
 30
0.0
 40
0.5
  0
CIRCLE
  5
1C672
330
1B896
100
AcDbEntity
  8
AM_5
100
AcDbCircle
 10
4481.553177681862
 20
252.7989711666564
 30
0.0
 40
0.5
  0
TEXT
  5
1C673
330
1B896
100
AcDbEntity
  8
AM_5
100
AcDbText
 10
4477.553177681861
 20
294.0237837021688
 30
0.0
 40
6.0
  1
12.5(9.5)
 50
90.0
  7
SIMPLEX
100
AcDbText
1001
ACAD_DSTYLE_DIMINSPECT
1070
   393
1070
     0
1001
ACAD
1000
DSTYLE
1002
{
1070
   170
1070
     0
1070
    72
1070
     0
1070
    71
1070
     0
1002
}
  0
CIRCLE
  5
1C674
330
1B896
100
AcDbEntity
  8
AM_5
100
AcDbCircle
 10
4481.553177681862
 20
278.2989711666564
 30
0.0
 40
0.5
  0
CIRCLE
  5
1C675
330
1B896
100
AcDbEntity
  8
AM_5
100
AcDbCircle
 10
4481.553177681862
 20
265.7989711666564
 30
0.0
 40
0.5
  0
TEXT
  5
1C676
330
1B896
100
AcDbEntity
  8
AM_5
100
AcDbText
 10
4493.553177681861
 20
272.7989711666562
 30
0.0
 40
6.0
  1
24
 50
90.0
  7
SIMPLEX
100
AcDbText
1001
ACAD_DSTYLE_DIMINSPECT
1070
   393
1070
     0
1001
ACAD
1000
DSTYLE
1002
{
1070
   173
1070
     1
1070
   174
1070
     1
1070
    40
1040
2.0
1002
}
  0
CIRCLE
  5
1C677
330
1B896
100
AcDbEntity
  8
AM_5
100
AcDbCircle
 10
4495.553177681862
 20
289.7989711666564
 30
0.0
 40
0.5
  0
TEXT
  5
1C678
330
1B896
100
AcDbEntity
  8
AM_5
100
AcDbText
 10
4507.553177681861
 20
115.4061140237993
 30
0.0
 40
6.0
  1
WH=H+24
 50
90.0
  7
SIMPLEX
100
AcDbText
1001
ACAD_DSTYLE_DIMINSPECT
1070
   393
1070
     0
1001
ACAD
1000
DSTYLE
1002
{
1070
    72
1070
     0
1070
    71
1070
     0
1002
}
  0
CIRCLE
  5
1C679
330
1B896
100
AcDbEntity
  8
AM_5
100
AcDbCircle
 10
4509.553177681861
 20
-14.70102883334345
 30
0.0
 40
0.5
  0
CIRCLE
  5
1C67A
330
1B896
100
AcDbEntity
  8
AM_5
100
AcDbCircle
 10
4509.553177681861
 20
289.7989711666564
 30
0.0
 40
0.5
  0
LINE
  5
1C67B
330
1B896
100
AcDbEntity
  8
AM_5
100
AcDbLine
 10
4612.343254721142
 20
183.3486239892382
 30
0.0
 11
4598.129711318496
 21
160.0730245116694
 31
0.0
1001
ACAD
1000
DSTYLE
1002
{
1070
    40
1040
3.0
1070
   176
1070
     4
1070
    41
1040
1.5
1070
   147
1040
1.0
1070
    77
1070
     0
1002
}
  0
LINE
  5
1C67C
330
1B896
100
AcDbEntity
  8
AM_5
100
AcDbLine
 10
4598.129711318496
 20
160.0730245116694
 30
0.0
 11
4583.253757855166
 21
160.0730245116694
 31
0.0
1001
ACAD
1000
DSTYLE
1002
{
1070
    40
1040
3.0
1070
   176
1070
     4
1070
    41
1040
1.5
1070
   147
1040
1.0
1070
    77
1070
     0
1002
}
  0
LINE
  5
1C67D
330
1B896
100
AcDbEntity
  8
AM_5
100
AcDbLine
 10
4612.983343734919
 20
182.9577454218509
 30
0.0
 11
4614.688526125465
 21
187.1891580718971
 31
0.0
210
0.0
220
0.0
230
-1.0
  0
LINE
  5
1C67E
330
1B896
100
AcDbEntity
  8
AM_5
100
AcDbLine
 10
4611.703165707366
 20
183.7395025566253
 30
0.0
 11
4614.688526125465
 21
187.1891580718971
 31
0.0
210
0.0
220
0.0
230
-1.0
  0
LINE
  5
1C67F
330
1B896
100
AcDbEntity
  8
AM_5
100
AcDbLine
 10
4614.688526125465
 20
187.1891580718971
 30
0.0
 11
4612.343254721142
 21
183.3486239892382
 31
0.0
210
0.0
220
0.0
230
-1.0
  0
TEXT
  5
1C680
330
1B896
100
AcDbEntity
  8
AM_5
100
AcDbText
 10
4619.589836062856
 20
221.1042033598817
 30
0.0
 40
6.0
  1
3
 50
90.0
  7
SIMPLEX
100
AcDbText
1001
ACAD_DSTYLE_DIMINSPECT
1070
   393
1070
     0
  0
CIRCLE
  5
1C681
330
1B896
100
AcDbEntity
  8
AM_5
100
AcDbCircle
 10
4621.589836062857
 20
213.0812708487583
 30
0.0
 40
0.5
  0
CIRCLE
  5
1C682
330
1B896
100
AcDbEntity
  8
AM_5
100
AcDbCircle
 10
4621.589836062857
 20
216.0812708487583
 30
0.0
 40
0.5
  0
TEXT
  5
1C683
330
1B896
100
AcDbEntity
  8
AM_5
100
AcDbText
 10
4619.589836062856
 20
208.2241279916154
 30
0.0
 40
6.0
  1
6
 50
90.0
  7
SIMPLEX
100
AcDbText
1001
ACAD_DSTYLE_DIMINSPECT
1070
   393
1070
     0
  0
CIRCLE
  5
1C684
330
1B896
100
AcDbEntity
  8
AM_5
100
AcDbCircle
 10
4621.589836062857
 20
207.0812708487583
 30
0.0
 40
0.5
  0
CIRCLE
  5
1C685
330
1B896
100
AcDbEntity
  8
AM_5
100
AcDbCircle
 10
4621.589836062857
 20
213.0812708487583
 30
0.0
 40
0.5
  0
TEXT
  5
1C686
330
1B896
100
AcDbEntity
  8
AM_5
100
AcDbText
 10
4605.589836062857
 20
198.7241279916154
 30
0.0
 40
6.0
  1
25
 50
90.0
  7
SIMPLEX
100
AcDbText
1001
ACAD_DSTYLE_DIMINSPECT
1070
   393
1070
     0
1001
ACAD
1000
DSTYLE
1002
{
1070
   174
1070
     1
1002
}
  0
CIRCLE
  5
1C687
330
1B896
100
AcDbEntity
  8
AM_5
100
AcDbCircle
 10
4607.589836062857
 20
216.0812708487583
 30
0.0
 40
0.5
  0
CIRCLE
  5
1C688
330
1B896
100
AcDbEntity
  8
AM_5
100
AcDbCircle
 10
4607.589836062857
 20
191.0812708487583
 30
0.0
 40
0.5
  0
TEXT
  5
1C689
330
1B896
100
AcDbEntity
  8
AM_5
100
AcDbText
 10
4605.589836062857
 20
228.7241279916154
 30
0.0
 40
6.0
  1
35
 50
90.0
  7
SIMPLEX
100
AcDbText
1001
ACAD_DSTYLE_DIMINSPECT
1070
   393
1070
     0
1001
ACAD
1000
DSTYLE
1002
{
1070
   174
1070
     1
1070
    40
1040
2.0
1002
}
  0
CIRCLE
  5
1C68A
330
1B896
100
AcDbEntity
  8
AM_5
100
AcDbCircle
 10
4607.589836062857
 20
251.0812708487583
 30
0.0
 40
0.5
  0
CIRCLE
  5
1C68B
330
1B896
100
AcDbEntity
  8
AM_5
100
AcDbCircle
 10
4607.589836062857
 20
216.0812708487583
 30
0.0
 40
0.5
  0
TEXT
  5
1C68C
330
1B896
100
AcDbEntity
  8
AM_5
100
AcDbText
 10
4999.259787877583
 20
211.9861501874644
 30
0.0
 40
6.0
  1
17.5
 50
90.0
  7
SIMPLEX
100
AcDbText
1001
ACAD_DSTYLE_DIMINSPECT
1070
   393
1070
     0
  0
CIRCLE
  5
1C68D
330
1B896
100
AcDbEntity
  8
AM_5
100
AcDbCircle
 10
5001.259787877584
 20
233.5812708487583
 30
0.0
 40
0.5
  0
CIRCLE
  5
1C68E
330
1B896
100
AcDbEntity
  8
AM_5
100
AcDbCircle
 10
5001.259787877584
 20
251.0812708487583
 30
0.0
 40
0.5
  0
TEXT
  5
1C68F
330
1B896
100
AcDbEntity
  8
AM_5
100
AcDbText
 10
4744.872009588614
 20
222.2241279916154
 30
0.0
 40
6.0
  1
40
 50
90.0
  7
SIMPLEX
100
AcDbText
1001
ACAD_DSTYLE_DIMINSPECT
1070
   393
1070
     0
  0
CIRCLE
  5
1C690
330
1B896
100
AcDbEntity
  8
AM_5
100
AcDbCircle
 10
4746.872009588614
 20
207.0812708487583
 30
0.0
 40
0.5
  0
CIRCLE
  5
1C691
330
1B896
100
AcDbEntity
  8
AM_5
100
AcDbCircle
 10
4746.872009588614
 20
247.0812708487583
 30
0.0
 40
0.5
  0
TEXT
  5
1C692
330
1B896
100
AcDbEntity
  8
AM_5
100
AcDbText
 10
4751.526714420476
 20
148.3486753758232
 30
0.0
 40
6.0
  1
ドアW2（DW2）＝W-8
  7
SIMPLEX
100
AcDbText
1001
ACAD_DSTYLE_DIMINSPECT
1070
   393
1070
     0
1001
ACAD
1000
DSTYLE
1002
{
1070
    72
1070
     0
1070
    71
1070
     0
1002
}
  0
CIRCLE
  5
1C693
330
1B896
100
AcDbEntity
  8
AM_5
100
AcDbCircle
 10
4922.141000134762
 20
146.3486753758233
 30
0.0
 40
0.5
  0
CIRCLE
  5
1C694
330
1B896
100
AcDbEntity
  8
AM_5
100
AcDbCircle
 10
4668.641000134762
 20
146.3486753758233
 30
0.0
 40
0.5
  0
TEXT
  5
1C695
330
1B896
100
AcDbEntity
  8
AM_5
100
AcDbText
 10
4912.850366003225
 20
148.3486753758232
 30
0.0
 40
6.0
  1
4
  7
SIMPLEX
100
AcDbText
1001
ACAD_DSTYLE_DIMINSPECT
1070
   393
1070
     0
1001
ACAD
1000
DSTYLE
1002
{
1070
   170
1070
     0
1070
    72
1070
     0
1070
    71
1070
     0
1070
   173
1070
     1
1002
}
  0
CIRCLE
  5
1C696
330
1B896
100
AcDbEntity
  8
AM_5
100
AcDbCircle
 10
4926.141018751663
 20
146.3486753758233
 30
0.0
 40
0.5
  0
CIRCLE
  5
1C697
330
1B896
100
AcDbEntity
  8
AM_5
100
AcDbCircle
 10
4922.141000134762
 20
146.3486753758233
 30
0.0
 40
0.5
  0
TEXT
  5
1C698
330
1B896
100
AcDbEntity
  8
AM_5
100
AcDbText
 10
4752.669580871783
 20
134.3486753758232
 30
0.0
 40
6.0
  1
ドアW1（DW1）＝W+8
  7
SIMPLEX
100
AcDbText
1001
ACAD_DSTYLE_DIMINSPECT
1070
   393
1070
     0
1001
ACAD
1000
DSTYLE
1002
{
1070
    72
1070
     0
1070
    71
1070
     0
1002
}
  0
CIRCLE
  5
1C699
330
1B896
100
AcDbEntity
  8
AM_5
100
AcDbCircle
 10
4660.641000134762
 20
132.3486753758232
 30
0.0
 40
0.5
  0
CIRCLE
  5
1C69A
330
1B896
100
AcDbEntity
  8
AM_5
100
AcDbCircle
 10
4930.141018751663
 20
132.3486753758232
 30
0.0
 40
0.5
  0
TEXT
  5
1C69B
330
1B896
100
AcDbEntity
  8
AM_5
100
AcDbText
 10
4932.641018751663
 20
134.3486753758232
 30
0.0
 40
6.0
  1
11
  7
SIMPLEX
100
AcDbText
1001
ACAD_DSTYLE_DIMINSPECT
1070
   393
1070
     0
1001
ACAD
1000
DSTYLE
1002
{
1070
   174
1070
     1
1002
}
  0
CIRCLE
  5
1C69C
330
1B896
100
AcDbEntity
  8
AM_5
100
AcDbCircle
 10
4941.141018751663
 20
132.3486753758232
 30
0.0
 40
0.5
  0
CIRCLE
  5
1C69D
330
1B896
100
AcDbEntity
  8
AM_5
100
AcDbCircle
 10
4930.141018751663
 20
132.3486753758232
 30
0.0
 40
0.5
  0
TEXT
  5
1C69E
330
1B896
100
AcDbEntity
  8
AM_5
100
AcDbText
 10
4957.043064204954
 20
134.3486753758232
 30
0.0
 40
6.0
  1
12.5
  7
SIMPLEX
100
AcDbText
1001
ACAD_DSTYLE_DIMINSPECT
1070
   393
1070
     0
1001
ACAD
1000
DSTYLE
1002
{
1070
   174
1070
     1
1070
    40
1040
2.0
1002
}
  0
CIRCLE
  5
1C69F
330
1B896
100
AcDbEntity
  8
AM_5
100
AcDbCircle
 10
4953.641018751663
 20
132.3486753758232
 30
0.0
 40
0.5
  0
CIRCLE
  5
1C6A0
330
1B896
100
AcDbEntity
  8
AM_5
100
AcDbCircle
 10
4941.141018751663
 20
132.3486753758232
 30
0.0
 40
0.5
  0
TEXT
  5
1C6A1
330
1B896
100
AcDbEntity
  8
AM_5
100
AcDbText
 10
4930.748161608806
 20
120.3486753758232
 30
0.0
 40
6.0
  1
27.5
  7
SIMPLEX
100
AcDbText
1001
ACAD_DSTYLE_DIMINSPECT
1070
   393
1070
     0
1001
ACAD
1000
DSTYLE
1002
{
1070
   173
1070
     1
1070
   174
1070
     1
1070
    40
1040
2.0
1002
}
  0
CIRCLE
  5
1C6A2
330
1B896
100
AcDbEntity
  8
AM_5
100
AcDbCircle
 10
4953.641018751663
 20
118.3486753758232
 30
0.0
 40
0.5
  0
TEXT
  5
1C6A3
330
1B896
100
AcDbEntity
  8
AM_5
100
AcDbText
 10
4772.819580871785
 20
106.3486753758232
 30
0.0
 40
6.0
  1
WW=W+55
  7
SIMPLEX
100
AcDbText
1001
ACAD_DSTYLE_DIMINSPECT
1070
   393
1070
     0
1001
ACAD
1000
DSTYLE
1002
{
1070
    72
1070
     0
1070
    71
1070
     0
1002
}
  0
CIRCLE
  5
1C6A4
330
1B896
100
AcDbEntity
  8
AM_5
100
AcDbCircle
 10
4637.141000134762
 20
104.3486753758232
 30
0.0
 40
0.5
  0
CIRCLE
  5
1C6A5
330
1B896
100
AcDbEntity
  8
AM_5
100
AcDbCircle
 10
4953.641018751663
 20
104.3486753758232
 30
0.0
 40
0.5
  0
TEXT
  5
1C6A6
330
1B896
100
AcDbEntity
  8
AM_5
100
AcDbText
 10
4673.282354300333
 20
148.3486753758232
 30
0.0
 40
6.0
  1
4
  7
SIMPLEX
100
AcDbText
1001
ACAD_DSTYLE_DIMINSPECT
1070
   393
1070
     0
1001
ACAD
1000
DSTYLE
1002
{
1070
   173
1070
     1
1002
}
  0
CIRCLE
  5
1C6A7
330
1B896
100
AcDbEntity
  8
AM_5
100
AcDbCircle
 10
4664.641000134762
 20
146.3486753758233
 30
0.0
 40
0.5
  0
CIRCLE
  5
1C6A8
330
1B896
100
AcDbEntity
  8
AM_5
100
AcDbCircle
 10
4668.641000134762
 20
146.3486753758233
 30
0.0
 40
0.5
  0
TEXT
  5
1C6A9
330
1B896
100
AcDbEntity
  8
AM_5
100
AcDbText
 10
4652.141000134762
 20
134.3486753758232
 30
0.0
 40
6.0
  1
11
  7
SIMPLEX
100
AcDbText
1001
ACAD_DSTYLE_DIMINSPECT
1070
   393
1070
     0
1001
ACAD
1000
DSTYLE
1002
{
1070
   174
1070
     1
1070
    40
1040
2.0
1002
}
  0
CIRCLE
  5
1C6AA
330
1B896
100
AcDbEntity
  8
AM_5
100
AcDbCircle
 10
4649.641000134762
 20
132.3486753758232
 30
0.0
 40
0.5
  0
CIRCLE
  5
1C6AB
330
1B896
100
AcDbEntity
  8
AM_5
100
AcDbCircle
 10
4660.641000134762
 20
132.3486753758232
 30
0.0
 40
0.5
  0
TEXT
  5
1C6AC
330
1B896
100
AcDbEntity
  8
AM_5
100
AcDbText
 10
4641.748142991906
 20
120.3486753758235
 30
0.0
 40
6.0
  1
27.5
  7
SIMPLEX
100
AcDbText
1001
ACAD_DSTYLE_DIMINSPECT
1070
   393
1070
     0
1001
ACAD
1000
DSTYLE
1002
{
1070
   173
1070
     1
1070
   174
1070
     1
1070
    40
1040
2.0
1002
}
  0
CIRCLE
  5
1C6AD
330
1B896
100
AcDbEntity
  8
AM_5
100
AcDbCircle
 10
4637.141000134762
 20
118.3486753758235
 30
0.0
 40
0.5
  0
TEXT
  5
1C6AE
330
1B896
100
AcDbEntity
  8
AM_5
100
AcDbText
 10
4670.025295230931
 20
138.0870230215675
 30
0.0
 40
6.0
  1
4
  7
SIMPLEX
100
AcDbText
1001
ACAD_DSTYLE_DIMINSPECT
1070
   393
1070
     0
1001
ACAD
1000
DSTYLE
1002
{
1070
   173
1070
     1
1002
}
  0
CIRCLE
  5
1C6AF
330
1B896
100
AcDbEntity
  8
AM_5
100
AcDbCircle
 10
4660.641000134762
 20
146.3486753758233
 30
0.0
 40
0.5
  0
CIRCLE
  5
1C6B0
330
1B896
100
AcDbEntity
  8
AM_5
100
AcDbCircle
 10
4664.641000134762
 20
146.3486753758233
 30
0.0
 40
0.5
  0
TEXT
  5
1C6B1
330
1B896
100
AcDbEntity
  8
AM_5
100
AcDbText
 10
4915.401938781684
 20
137.8258424459142
 30
0.0
 40
6.0
  1
4
  7
SIMPLEX
100
AcDbText
1001
ACAD_DSTYLE_DIMINSPECT
1070
   393
1070
     0
1001
ACAD
1000
DSTYLE
1002
{
1070
   173
1070
     1
1002
}
  0
CIRCLE
  5
1C6B2
330
1B896
100
AcDbEntity
  8
AM_5
100
AcDbCircle
 10
4930.141018751663
 20
146.3486753758233
 30
0.0
 40
0.5
  0
CIRCLE
  5
1C6B3
330
1B896
100
AcDbEntity
  8
AM_5
100
AcDbCircle
 10
4926.141018751663
 20
146.3486753758233
 30
0.0
 40
0.5
  0
LINE
  5
1C6B4
330
1B896
100
AcDbEntity
  8
AM_5
100
AcDbLine
 10
4415.236295196645
 20
430.2328380158921
 30
0.0
 11
4450.53388976239
 21
453.0929760434948
 31
0.0
1001
ACAD
1000
DSTYLE
1002
{
1070
    40
1040
3.0
1070
   176
1070
     4
1070
    41
1040
1.5
1070
   147
1040
1.0
1070
    77
1070
     0
1002
}
  0
LINE
  5
1C6B5
330
1B896
100
AcDbEntity
  8
AM_5
100
AcDbLine
 10
4450.53388976239
 20
453.0929760434948
 30
0.0
 11
4570.238080996744
 21
453.0929760434948
 31
0.0
1001
ACAD
1000
DSTYLE
1002
{
1070
    40
1040
3.0
1070
   176
1070
     4
1070
    41
1040
1.5
1070
   147
1040
1.0
1070
    77
1070
     0
1002
}
  0
LINE
  5
1C6B6
330
1B896
100
AcDbEntity
  8
AM_5
100
AcDbLine
 10
4414.828598838976
 20
430.8623486829539
 30
0.0
 11
4411.459231194274
 21
427.7866598698866
 31
0.0
210
0.0
220
0.0
230
-1.0
  0
LINE
  5
1C6B7
330
1B896
100
AcDbEntity
  8
AM_5
100
AcDbLine
 10
4415.643991554311
 20
429.6033273488303
 30
0.0
 11
4411.459231194274
 21
427.7866598698866
 31
0.0
210
0.0
220
0.0
230
-1.0
  0
LINE
  5
1C6B8
330
1B896
100
AcDbEntity
  8
AM_5
100
AcDbLine
 10
4411.459231194274
 20
427.7866598698866
 30
0.0
 11
4415.236295196645
 21
430.2328380158921
 31
0.0
210
0.0
220
0.0
230
-1.0
  0
LINE
  5
1C6B9
330
1B896
100
AcDbEntity
  8
AM_5
100
AcDbLine
 10
4413.96108816937
 20
398.414594049565
 30
0.0
 11
4450.53388976239
 21
453.0929760434948
 31
0.0
1001
ACAD
1000
DSTYLE
1002
{
1070
    40
1040
3.0
1070
   176
1070
     4
1070
    41
1040
1.5
1070
   147
1040
1.0
1070
    77
1070
     0
1002
}
  0
LINE
  5
1C6BA
330
1B896
100
AcDbEntity
  8
AM_5
100
AcDbLine
 10
4450.53388976239
 20
453.0929760434948
 30
0.0
 11
4570.238080996744
 21
453.0929760434948
 31
0.0
1001
ACAD
1000
DSTYLE
1002
{
1070
    40
1040
3.0
1070
   176
1070
     4
1070
    41
1040
1.5
1070
   147
1040
1.0
1070
    77
1070
     0
1002
}
  0
LINE
  5
1C6BB
330
1B896
100
AcDbEntity
  8
AM_5
100
AcDbLine
 10
4413.337685506644
 20
398.8315702120812
 30
0.0
 11
4411.459231194274
 21
394.6741780732119
 31
0.0
210
0.0
220
0.0
230
-1.0
  0
LINE
  5
1C6BC
330
1B896
100
AcDbEntity
  8
AM_5
100
AcDbLine
 10
4414.584490832096
 20
397.9976178870489
 30
0.0
 11
4411.459231194274
 21
394.6741780732119
 31
0.0
210
0.0
220
0.0
230
-1.0
  0
LINE
  5
1C6BD
330
1B896
100
AcDbEntity
  8
AM_5
100
AcDbLine
 10
4411.459231194274
 20
394.6741780732119
 30
0.0
 11
4413.96108816937
 21
398.414594049565
 31
0.0
210
0.0
220
0.0
230
-1.0
  0
TEXT
  5
1C6BE
330
1B896
100
AcDbEntity
  8
AM_5
100
AcDbText
 10
4615.896972192074
 20
134.3486753758232
 30
0.0
 40
6.0
  1
12.5
  7
SIMPLEX
100
AcDbText
1001
ACAD_DSTYLE_DIMINSPECT
1070
   393
1070
     0
1001
ACAD
1000
DSTYLE
1002
{
1070
   174
1070
     1
1070
    40
1040
2.0
1002
}
  0
CIRCLE
  5
1C6BF
330
1B896
100
AcDbEntity
  8
AM_5
100
AcDbCircle
 10
4637.141000134762
 20
132.3486753758232
 30
0.0
 40
0.5
  0
CIRCLE
  5
1C6C0
330
1B896
100
AcDbEntity
  8
AM_5
100
AcDbCircle
 10
4649.641000134762
 20
132.3486753758232
 30
0.0
 40
0.5
  0
LINE
  5
1C6C1
330
1B896
100
AcDbEntity
  8
AM_5
100
AcDbLine
 10
4426.475383307248
 20
300.396144226542
 30
0.0
 11
4463.048184900268
 21
355.0745262204717
 31
0.0
1001
ACAD
1000
DSTYLE
1002
{
1070
    40
1040
3.0
1070
   176
1070
     4
1070
    41
1040
1.5
1070
   147
1040
1.0
1070
    77
1070
     0
1002
}
  0
LINE
  5
1C6C2
330
1B896
100
AcDbEntity
  8
AM_5
100
AcDbLine
 10
4463.048184900268
 20
355.0745262204717
 30
0.0
 11
4514.389632018249
 21
355.0745262204717
 31
0.0
1001
ACAD
1000
DSTYLE
1002
{
1070
    40
1040
3.0
1070
   176
1070
     4
1070
    41
1040
1.5
1070
   147
1040
1.0
1070
    77
1070
     0
1002
}
  0
LINE
  5
1C6C3
330
1B896
100
AcDbEntity
  8
AM_5
100
AcDbLine
 10
4425.851980644522
 20
300.8131203890582
 30
0.0
 11
4423.973526332152
 21
296.6557282501888
 31
0.0
210
0.0
220
0.0
230
-1.0
  0
LINE
  5
1C6C4
330
1B896
100
AcDbEntity
  8
AM_5
100
AcDbLine
 10
4427.098785969974
 20
299.9791680640258
 30
0.0
 11
4423.973526332152
 21
296.6557282501888
 31
0.0
210
0.0
220
0.0
230
-1.0
  0
LINE
  5
1C6C5
330
1B896
100
AcDbEntity
  8
AM_5
100
AcDbLine
 10
4423.973526332152
 20
296.6557282501888
 30
0.0
 11
4426.475383307248
 21
300.396144226542
 31
0.0
210
0.0
220
0.0
230
-1.0
  0
LINE
  5
1C6C6
330
1B896
100
AcDbEntity
  8
AM_5
100
AcDbLine
 10
4422.755481764887
 20
279.9286272658158
 30
0.0
 11
4467.839086711534
 21
344.6484448022081
 31
0.0
1001
ACAD
1000
DSTYLE
1002
{
1070
    40
1040
3.0
1070
   176
1070
     4
1070
    41
1040
1.5
1070
   147
1040
1.0
1070
    77
1070
     0
1002
}
  0
LINE
  5
1C6C7
330
1B896
100
AcDbEntity
  8
AM_5
100
AcDbLine
 10
4467.839086711534
 20
344.6484448022081
 30
0.0
 11
4556.608517531309
 21
344.6484448022081
 31
0.0
1001
ACAD
1000
DSTYLE
1002
{
1070
    40
1040
3.0
1070
   176
1070
     4
1070
    41
1040
1.5
1070
   147
1040
1.0
1070
    77
1070
     0
1002
}
  0
LINE
  5
1C6C8
330
1B896
100
AcDbEntity
  8
AM_5
100
AcDbLine
 10
4422.14007545191
 20
280.3573172119874
 30
0.0
 11
4420.183342087858
 21
276.2361893879563
 31
0.0
210
0.0
220
0.0
230
-1.0
  0
LINE
  5
1C6C9
330
1B896
100
AcDbEntity
  8
AM_5
100
AcDbLine
 10
4423.370888077863
 20
279.4999373196442
 30
0.0
 11
4420.183342087858
 21
276.2361893879563
 31
0.0
210
0.0
220
0.0
230
-1.0
  0
LINE
  5
1C6CA
330
1B896
100
AcDbEntity
  8
AM_5
100
AcDbLine
 10
4420.183342087858
 20
276.2361893879563
 30
0.0
 11
4422.755481764887
 21
279.9286272658158
 31
0.0
210
0.0
220
0.0
230
-1.0
  0
CIRCLE
  5
1C759
330
1B896
100
AcDbEntity
  8
AM_2
100
AcDbCircle
 10
4914.641018267313
 20
173.8312708487532
 30
0.0
 40
3.75
  0
LINE
  5
1C75A
330
1B896
100
AcDbEntity
  8
AM_2
100
AcDbLine
 10
4915.041018751662
 20
175.4312708487532
 30
0.0
 11
4914.241018751662
 21
175.4312708487532
 31
0.0
  0
LINE
  5
1C75B
330
1B896
100
AcDbEntity
  8
AM_2
100
AcDbLine
 10
4916.241018751662
 20
173.4312708487532
 30
0.0
 11
4916.241018751662
 21
174.2312708487532
 31
0.0
  0
LINE
  5
1C75C
330
1B896
100
AcDbEntity
  8
AM_2
100
AcDbLine
 10
4914.241018751662
 20
172.2312708487532
 30
0.0
 11
4915.041018751662
 21
172.2312708487532
 31
0.0
  0
LINE
  5
1C75D
330
1B896
100
AcDbEntity
  8
AM_2
100
AcDbLine
 10
4913.041018751663
 20
174.2312708487532
 30
0.0
 11
4913.041018751663
 21
173.4312708487532
 31
0.0
  0
LINE
  5
1C75E
330
1B896
100
AcDbEntity
  8
AM_2
100
AcDbLine
 10
4915.341018751663
 20
174.2312708487532
 30
0.0
 11
4916.241018751662
 21
174.2312708487532
 31
0.0
  0
LINE
  5
1C75F
330
1B896
100
AcDbEntity
  8
AM_2
100
AcDbLine
 10
4915.041018751662
 20
174.5312708487532
 30
0.0
 11
4915.041018751662
 21
175.4312708487532
 31
0.0
  0
ARC
  5
1C760
330
1B896
100
AcDbEntity
  8
AM_2
100
AcDbCircle
 10
4915.341018751663
 20
174.5312708487532
 30
0.0
 40
0.3
100
AcDbArc
 50
180.0
 51
270.0
  0
LINE
  5
1C761
330
1B896
100
AcDbEntity
  8
AM_2
100
AcDbLine
 10
4914.241018751662
 20
174.5312708487532
 30
0.0
 11
4914.241018751662
 21
175.4312708487532
 31
0.0
  0
LINE
  5
1C762
330
1B896
100
AcDbEntity
  8
AM_2
100
AcDbLine
 10
4913.941018751662
 20
174.2312708487532
 30
0.0
 11
4913.041018751663
 21
174.2312708487532
 31
0.0
  0
ARC
  5
1C763
330
1B896
100
AcDbEntity
  8
AM_2
100
AcDbCircle
 10
4913.941018751662
 20
174.5312708487532
 30
0.0
 40
0.3
100
AcDbArc
 50
270.0
 51
0.0
  0
LINE
  5
1C764
330
1B896
100
AcDbEntity
  8
AM_2
100
AcDbLine
 10
4914.241018751662
 20
173.1312708487532
 30
0.0
 11
4914.241018751662
 21
172.2312708487532
 31
0.0
  0
LINE
  5
1C765
330
1B896
100
AcDbEntity
  8
AM_2
100
AcDbLine
 10
4913.941018751662
 20
173.4312708487532
 30
0.0
 11
4913.041018751663
 21
173.4312708487532
 31
0.0
  0
ARC
  5
1C766
330
1B896
100
AcDbEntity
  8
AM_2
100
AcDbCircle
 10
4913.941018751662
 20
173.1312708487532
 30
0.0
 40
0.3
100
AcDbArc
 50
0.0
 51
90.0
  0
LINE
  5
1C767
330
1B896
100
AcDbEntity
  8
AM_2
100
AcDbLine
 10
4915.341018751663
 20
173.4312708487532
 30
0.0
 11
4916.241018751662
 21
173.4312708487532
 31
0.0
  0
LINE
  5
1C768
330
1B896
100
AcDbEntity
  8
AM_2
100
AcDbLine
 10
4915.041018751662
 20
173.1312708487532
 30
0.0
 11
4915.041018751662
 21
172.2312708487532
 31
0.0
  0
ARC
  5
1C769
330
1B896
100
AcDbEntity
  8
AM_2
100
AcDbCircle
 10
4915.341018751663
 20
173.1312708487532
 30
0.0
 40
0.3
100
AcDbArc
 50
90.0
 51
180.0
  0
LINE
  5
1C76A
330
1B896
100
AcDbEntity
  8
AM_2
100
AcDbLine
 10
4906.041018267313
 20
183.6812708487532
 30
0.0
 11
4905.241018267313
 21
183.6812708487532
 31
0.0
  0
LINE
  5
1C76B
330
1B896
100
AcDbEntity
  8
AM_2
100
AcDbLine
 10
4907.241018267313
 20
181.6812708487533
 30
0.0
 11
4907.241018267313
 21
182.4812708487533
 31
0.0
  0
LINE
  5
1C76C
330
1B896
100
AcDbEntity
  8
AM_2
100
AcDbLine
 10
4905.241018267313
 20
180.4812708487532
 30
0.0
 11
4906.041018267313
 21
180.4812708487532
 31
0.0
  0
LINE
  5
1C76D
330
1B896
100
AcDbEntity
  8
AM_2
100
AcDbLine
 10
4904.041018267312
 20
182.4812708487533
 30
0.0
 11
4904.041018267312
 21
181.6812708487533
 31
0.0
  0
LINE
  5
1C76E
330
1B896
100
AcDbEntity
  8
AM_2
100
AcDbLine
 10
4906.341018267312
 20
182.4812708487533
 30
0.0
 11
4907.241018267313
 21
182.4812708487533
 31
0.0
  0
LINE
  5
1C76F
330
1B896
100
AcDbEntity
  8
AM_2
100
AcDbLine
 10
4906.041018267313
 20
182.7812708487533
 30
0.0
 11
4906.041018267313
 21
183.6812708487532
 31
0.0
  0
ARC
  5
1C770
330
1B896
100
AcDbEntity
  8
AM_2
100
AcDbCircle
 10
4906.341018267312
 20
182.7812708487533
 30
0.0
 40
0.3
100
AcDbArc
 50
180.0
 51
270.0
  0
LINE
  5
1C771
330
1B896
100
AcDbEntity
  8
AM_2
100
AcDbLine
 10
4905.241018267313
 20
182.7812708487533
 30
0.0
 11
4905.241018267313
 21
183.6812708487532
 31
0.0
  0
LINE
  5
1C772
330
1B896
100
AcDbEntity
  8
AM_2
100
AcDbLine
 10
4904.941018267312
 20
182.4812708487533
 30
0.0
 11
4904.041018267312
 21
182.4812708487533
 31
0.0
  0
ARC
  5
1C773
330
1B896
100
AcDbEntity
  8
AM_2
100
AcDbCircle
 10
4904.941018267312
 20
182.7812708487533
 30
0.0
 40
0.3
100
AcDbArc
 50
270.0
 51
0.0
  0
LINE
  5
1C774
330
1B896
100
AcDbEntity
  8
AM_2
100
AcDbLine
 10
4905.241018267313
 20
181.3812708487532
 30
0.0
 11
4905.241018267313
 21
180.4812708487532
 31
0.0
  0
LINE
  5
1C775
330
1B896
100
AcDbEntity
  8
AM_2
100
AcDbLine
 10
4904.941018267312
 20
181.6812708487533
 30
0.0
 11
4904.041018267312
 21
181.6812708487533
 31
0.0
  0
ARC
  5
1C776
330
1B896
100
AcDbEntity
  8
AM_2
100
AcDbCircle
 10
4904.941018267312
 20
181.3812708487532
 30
0.0
 40
0.3
100
AcDbArc
 50
0.0
 51
90.0
  0
LINE
  5
1C777
330
1B896
100
AcDbEntity
  8
AM_2
100
AcDbLine
 10
4906.341018267312
 20
181.6812708487533
 30
0.0
 11
4907.241018267313
 21
181.6812708487533
 31
0.0
  0
LINE
  5
1C778
330
1B896
100
AcDbEntity
  8
AM_2
100
AcDbLine
 10
4906.041018267313
 20
181.3812708487532
 30
0.0
 11
4906.041018267313
 21
180.4812708487532
 31
0.0
  0
ARC
  5
1C779
330
1B896
100
AcDbEntity
  8
AM_2
100
AcDbCircle
 10
4906.341018267312
 20
181.3812708487532
 30
0.0
 40
0.3
100
AcDbArc
 50
90.0
 51
180.0
  0
LINE
  5
1C77A
330
1B896
100
AcDbEntity
  8
AM_2
100
AcDbLine
 10
4925.241018267313
 20
181.6812708487533
 30
0.0
 11
4925.241018267313
 21
182.4812708487533
 31
0.0
  0
LINE
  5
1C77B
330
1B896
100
AcDbEntity
  8
AM_2
100
AcDbLine
 10
4923.241018267312
 20
180.4812708487532
 30
0.0
 11
4924.041018267312
 21
180.4812708487532
 31
0.0
  0
LINE
  5
1C77C
330
1B896
100
AcDbEntity
  8
AM_2
100
AcDbLine
 10
4924.341018267313
 20
182.4812708487533
 30
0.0
 11
4925.241018267313
 21
182.4812708487533
 31
0.0
  0
ARC
  5
1C77D
330
1B896
100
AcDbEntity
  8
AM_2
100
AcDbCircle
 10
4924.341018267313
 20
182.7812708487533
 30
0.0
 40
0.3
100
AcDbArc
 50
180.0
 51
270.0
  0
LINE
  5
1C77E
330
1B896
100
AcDbEntity
  8
AM_2
100
AcDbLine
 10
4923.241018267312
 20
181.3812708487532
 30
0.0
 11
4923.241018267312
 21
180.4812708487532
 31
0.0
  0
ARC
  5
1C77F
330
1B896
100
AcDbEntity
  8
AM_2
100
AcDbCircle
 10
4922.941018267312
 20
181.3812708487532
 30
0.0
 40
0.3
100
AcDbArc
 50
0.0
 51
90.0
  0
LINE
  5
1C780
330
1B896
100
AcDbEntity
  8
AM_2
100
AcDbLine
 10
4924.341018267313
 20
181.6812708487533
 30
0.0
 11
4925.241018267313
 21
181.6812708487533
 31
0.0
  0
LINE
  5
1C781
330
1B896
100
AcDbEntity
  8
AM_2
100
AcDbLine
 10
4924.041018267312
 20
181.3812708487532
 30
0.0
 11
4924.041018267312
 21
180.4812708487532
 31
0.0
  0
ARC
  5
1C782
330
1B896
100
AcDbEntity
  8
AM_2
100
AcDbCircle
 10
4924.341018267313
 20
181.3812708487532
 30
0.0
 40
0.3
100
AcDbArc
 50
90.0
 51
180.0
  0
ARC
  5
1C783
330
1B896
100
AcDbEntity
  8
AM_2
100
AcDbCircle
 10
4914.641018267313
 20
183.2805462111532
 30
0.0
 40
18.7
100
AcDbArc
 50
137.0278363282899
 51
54.2727480120164
  0
ARC
  5
1C784
330
1B896
100
AcDbEntity
  8
AM_2
100
AcDbCircle
 10
4914.641018267313
 20
183.2805462111532
 30
0.0
 40
17.7
100
AcDbArc
 50
138.2978581556842
 51
50.84529794728204
  0
ARC
  5
1C785
330
1B896
100
AcDbEntity
  8
AM_2
100
AcDbCircle
 10
4905.641018267313
 20
182.0812708487533
 30
0.0
 40
3.75
100
AcDbArc
 50
86.54530732576775
 51
333.0557031625947
  0
ARC
  5
1C786
330
1B896
100
AcDbEntity
  8
AM_2
100
AcDbCircle
 10
4923.641018267312
 20
182.0812708487533
 30
0.0
 40
3.75
100
AcDbArc
 50
214.0090665530378
 51
58.47683335363637
  0
LINE
  5
1C787
330
1B896
100
AcDbEntity
  8
AM_2
100
AcDbLine
 10
4922.941018267312
 20
181.6812708487533
 30
0.0
 11
4922.540530109914
 21
181.6812708487533
 31
0.0
  0
LINE
  5
1C788
330
1B896
100
AcDbEntity
  8
AM_2
100
AcDbLine
 10
4924.041018267312
 20
182.7812708487533
 30
0.0
 11
4924.041018267312
 21
183.1817590061532
 31
0.0
  0
LINE
  5
1C7C0
330
1B896
100
AcDbEntity
  8
OS
 62
     2
100
AcDbLine
 10
4431.441424627448
 20
444.2813745834895
 30
0.0
 11
4430.941424627448
 21
444.2813745834895
 31
0.0
  0
TEXT
  5
1C7C1
330
1B896
100
AcDbEntity
  8
AM_5
100
AcDbText
 10
4432.584281770306
 20
329.7989711666564
 30
0.0
 40
6.0
  1
13
  7
SIMPLEX
100
AcDbText
1001
ACAD_DSTYLE_DIMINSPECT
1070
   393
1070
     0
1001
ACAD
1000
DSTYLE
1002
{
1070
   174
1070
     1
1002
}
  0
LINE
  5
1C9A6
330
1B896
100
AcDbEntity
  8
AM_0
100
AcDbLine
 10
4664.641000134762
 20
249.0812708487583
 30
0.0
 11
4664.641000134762
 21
239.9812708487583
 31
0.0
  0
LINE
  5
1C9A7
330
1B896
100
AcDbEntity
  8
AM_0
100
AcDbLine
 10
4662.641000134762
 20
251.0812708487583
 30
0.0
 11
4664.641000134762
 21
249.0812708487583
 31
0.0
  0
LINE
  5
1C9AB
330
1B896
100
AcDbEntity
  8
AM_0
100
AcDbLine
 10
4662.641000134762
 20
216.0812708487583
 30
0.0
 11
4664.641000134762
 21
218.0812708487583
 31
0.0
  0
LINE
  5
1C9AC
330
1B896
100
AcDbEntity
  8
AM_2
100
AcDbLine
 10
4658.141000134762
 20
233.4812708487583
 30
0.0
 11
4658.141000134762
 21
233.6812708487582
 31
0.0
  0
LINE
  5
1C9AD
330
1B896
100
AcDbEntity
  8
AM_2
100
AcDbLine
 10
4664.641000134762
 20
239.0812708487583
 30
0.0
 11
4664.641000134762
 21
228.0812708487583
 31
0.0
  0
LINE
  5
1C9AE
330
1B896
100
AcDbEntity
  8
AM_2
100
AcDbLine
 10
4663.341000134762
 20
233.0812708487583
 30
0.0
 11
4659.147385002034
 21
233.0812708487583
 31
0.0
  0
LINE
  5
1C9AF
330
1B896
100
AcDbEntity
  8
AM_2
100
AcDbLine
 10
4663.341000134762
 20
233.0812708487583
 30
0.0
 11
4663.141000134762
 21
227.5812708487583
 31
0.0
  0
LINE
  5
1C9B0
330
1B896
100
AcDbEntity
  8
AM_2
100
AcDbLine
 10
4658.141000134762
 20
233.4812708487583
 30
0.0
 11
4659.480220531047
 21
231.9312708487582
 31
0.0
  0
LINE
  5
1C9B1
330
1B896
100
AcDbEntity
  8
AM_2
100
AcDbLine
 10
4659.147385002034
 20
233.0812708487583
 30
0.0
 11
4660.141000134762
 21
231.9312708487582
 31
0.0
  0
LINE
  5
1C9B2
330
1B896
100
AcDbEntity
  8
AM_2
100
AcDbLine
 10
4660.141000134762
 20
231.9312708487582
 30
0.0
 11
4659.480220531047
 21
231.9312708487582
 31
0.0
  0
LINE
  5
1C9B3
330
1B896
100
AcDbEntity
  8
AM_2
100
AcDbLine
 10
4664.141000134762
 20
227.5812708487583
 30
0.0
 11
4663.141000134762
 21
227.5812708487583
 31
0.0
  0
ARC
  5
1C9B4
330
1B896
100
AcDbEntity
  8
AM_2
100
AcDbCircle
 10
4664.141000134762
 20
228.0812708487583
 30
0.0
 40
0.5
100
AcDbArc
 50
270.0
 51
0.0
  0
LINE
  5
1C9B5
330
1B896
100
AcDbEntity
  8
AM_2
100
AcDbLine
 10
4663.341000134762
 20
234.0812708487583
 30
0.0
 11
4659.147385002034
 21
234.0812708487583
 31
0.0
  0
LINE
  5
1C9B6
330
1B896
100
AcDbEntity
  8
AM_2
100
AcDbLine
 10
4663.341000134762
 20
234.0812708487583
 30
0.0
 11
4663.141000134762
 21
239.5812708487583
 31
0.0
  0
LINE
  5
1C9B7
330
1B896
100
AcDbEntity
  8
AM_2
100
AcDbLine
 10
4658.141000134762
 20
233.6812708487582
 30
0.0
 11
4659.480220531047
 21
235.2312708487583
 31
0.0
  0
LINE
  5
1C9B8
330
1B896
100
AcDbEntity
  8
AM_2
100
AcDbLine
 10
4659.147385002034
 20
234.0812708487583
 30
0.0
 11
4660.141000134762
 21
235.2312708487583
 31
0.0
  0
LINE
  5
1C9B9
330
1B896
100
AcDbEntity
  8
AM_2
100
AcDbLine
 10
4660.141000134762
 20
235.2312708487583
 30
0.0
 11
4659.480220531047
 21
235.2312708487583
 31
0.0
  0
LINE
  5
1C9BA
330
1B896
100
AcDbEntity
  8
AM_2
100
AcDbLine
 10
4664.141000134762
 20
239.5812708487583
 30
0.0
 11
4663.141000134762
 21
239.5812708487583
 31
0.0
  0
ARC
  5
1C9BB
330
1B896
100
AcDbEntity
  8
AM_2
100
AcDbCircle
 10
4664.141000134762
 20
239.0812708487583
 30
0.0
 40
0.5
100
AcDbArc
 50
0.0
 51
90.0
  0
LINE
  5
1C9BC
330
1B896
100
AcDbEntity
  8
AM_0
100
AcDbLine
 10
4663.141000134762
 20
235.0812708487583
 30
0.0
 11
4657.641000134762
 21
235.0812708487583
 31
0.0
  0
LINE
  5
1C9BD
330
1B896
100
AcDbEntity
  8
AM_0
100
AcDbLine
 10
4657.641000134762
 20
235.0812708487583
 30
0.0
 11
4657.641000134762
 21
232.0812708487583
 31
0.0
  0
LINE
  5
1C9BE
330
1B896
100
AcDbEntity
  8
AM_0
100
AcDbLine
 10
4664.641000134762
 20
227.1812708487583
 30
0.0
 11
4663.141000134762
 21
227.1812708487583
 31
0.0
  0
LINE
  5
1C9BF
330
1B896
100
AcDbEntity
  8
AM_0
100
AcDbLine
 10
4663.141000134762
 20
232.0812708487583
 30
0.0
 11
4657.641000134762
 21
232.0812708487583
 31
0.0
  0
LINE
  5
1C9C0
330
1B896
100
AcDbEntity
  8
AM_0
100
AcDbLine
 10
4663.141000134762
 20
232.0812708487583
 30
0.0
 11
4663.141000134762
 21
227.1812708487583
 31
0.0
  0
LINE
  5
1C9C1
330
1B896
100
AcDbEntity
  8
AM_0
100
AcDbLine
 10
4664.641000134762
 20
239.9812708487583
 30
0.0
 11
4663.141000134762
 21
239.9812708487583
 31
0.0
  0
LINE
  5
1C9C2
330
1B896
100
AcDbEntity
  8
AM_0
100
AcDbLine
 10
4663.141000134762
 20
235.0812708487583
 30
0.0
 11
4663.141000134762
 21
239.9812708487583
 31
0.0
  0
LINE
  5
1C9C3
330
1B896
100
AcDbEntity
  8
AM_0
100
AcDbLine
 10
4664.641000134762
 20
227.1812708487583
 30
0.0
 11
4664.641000134762
 21
218.0812708487583
 31
0.0
  0
LINE
  5
1C9C4
330
1B896
100
AcDbEntity
  8
CONT_S_2
100
AcDbLine
 10
4664.641000134762
 20
224.903827074911
 30
0.0
 11
4655.81844390861
 21
216.0812708487583
 31
0.0
1001
GENIUS_GENOBJ-N-HTC_13
1002
{
1000
OWNER
1000
GEN
1002
}
1001
GENIUS_GENODEF_13
1002
{
1000
HIER
1070
     0
1002
}
1002
{
1000
MANEDIT
1070
     0
1002
}
1002
{
1000
NOSEL
1070
     0
1002
}
1002
{
1000
BEHIND
1070
     0
1002
}
1002
{
1000
OTHER
1070
     0
1002
}
1002
{
1000
REACTOR
1002
}
1001
GENIUS_GENHATCH_13
1002
{
1000
DATA
1040
45.0
1042
2.5
1000
_U
1070
     0
1011
4654.828631176321
1021
234.8169140511543
1031
0.0
1002
}
1002
{
1000
UCS
1010
0.0
1020
0.0
1030
0.0
1010
1.0
1020
0.0
1030
0.0
1010
0.0
1020
1.0
1030
0.0
1002
}
1001
HATCHBACKGROUNDCOLOR
1071
-939524096
1000

1000

  0
LINE
  5
1C9C5
330
1B896
100
AcDbEntity
  8
CONT_S_2
100
AcDbLine
 10
4663.141000134762
 20
231.8891084491496
 30
0.0
 11
4647.333162534371
 21
216.0812708487583
 31
0.0
1001
GENIUS_GENOBJ-N-HTC_13
1002
{
1000
OWNER
1000
GEN
1002
}
1001
GENIUS_GENODEF_13
1002
{
1000
HIER
1070
     0
1002
}
1002
{
1000
MANEDIT
1070
     0
1002
}
1002
{
1000
NOSEL
1070
     0
1002
}
1002
{
1000
BEHIND
1070
     0
1002
}
1002
{
1000
OTHER
1070
     0
1002
}
1002
{
1000
REACTOR
1002
}
1001
GENIUS_GENHATCH_13
1002
{
1000
DATA
1040
45.0
1042
2.5
1000
_U
1070
     0
1011
4654.828631176321
1021
234.8169140511543
1031
0.0
1002
}
1002
{
1000
UCS
1010
0.0
1020
0.0
1030
0.0
1010
1.0
1020
0.0
1030
0.0
1010
0.0
1020
1.0
1030
0.0
1002
}
1001
HATCHBACKGROUNDCOLOR
1071
-939524096
1000

1000

  0
LINE
  5
1C9C6
330
1B896
100
AcDbEntity
  8
CONT_S_2
100
AcDbLine
 10
4664.641000134762
 20
241.8743898233881
 30
0.0
 11
4657.847881160133
 21
235.0812708487583
 31
0.0
1001
GENIUS_GENOBJ-N-HTC_13
1002
{
1000
OWNER
1000
GEN
1002
}
1001
GENIUS_GENODEF_13
1002
{
1000
HIER
1070
     0
1002
}
1002
{
1000
MANEDIT
1070
     0
1002
}
1002
{
1000
NOSEL
1070
     0
1002
}
1002
{
1000
BEHIND
1070
     0
1002
}
1002
{
1000
OTHER
1070
     0
1002
}
1002
{
1000
REACTOR
1002
}
1001
GENIUS_GENHATCH_13
1002
{
1000
DATA
1040
45.0
1042
2.5
1000
_U
1070
     0
1011
4654.828631176321
1021
234.8169140511543
1031
0.0
1002
}
1002
{
1000
UCS
1010
0.0
1020
0.0
1030
0.0
1010
1.0
1020
0.0
1030
0.0
1010
0.0
1020
1.0
1030
0.0
1002
}
1001
HATCHBACKGROUNDCOLOR
1071
-939524096
1000

1000

  0
LINE
  5
1C9C7
330
1B896
100
AcDbEntity
  8
CONT_S_2
100
AcDbLine
 10
4657.641000134762
 20
234.8743898233881
 30
0.0
 11
4638.847881160134
 21
216.0812708487583
 31
0.0
1001
GENIUS_GENOBJ-N-HTC_13
1002
{
1000
OWNER
1000
GEN
1002
}
1001
GENIUS_GENODEF_13
1002
{
1000
HIER
1070
     0
1002
}
1002
{
1000
MANEDIT
1070
     0
1002
}
1002
{
1000
NOSEL
1070
     0
1002
}
1002
{
1000
BEHIND
1070
     0
1002
}
1002
{
1000
OTHER
1070
     0
1002
}
1002
{
1000
REACTOR
1002
}
1001
GENIUS_GENHATCH_13
1002
{
1000
DATA
1040
45.0
1042
2.5
1000
_U
1070
     0
1011
4654.828631176321
1021
234.8169140511543
1031
0.0
1002
}
1002
{
1000
UCS
1010
0.0
1020
0.0
1030
0.0
1010
1.0
1020
0.0
1030
0.0
1010
0.0
1020
1.0
1030
0.0
1002
}
1001
HATCHBACKGROUNDCOLOR
1071
-939524096
1000

1000

  0
LINE
  5
1C9C8
330
1B896
100
AcDbEntity
  8
CONT_S_2
100
AcDbLine
 10
4664.001799960328
 20
249.7204710231925
 30
0.0
 11
4637.141000134762
 21
222.8596711976267
 31
0.0
1001
GENIUS_GENOBJ-N-HTC_13
1002
{
1000
OWNER
1000
GEN
1002
}
1001
GENIUS_GENODEF_13
1002
{
1000
HIER
1070
     0
1002
}
1002
{
1000
MANEDIT
1070
     0
1002
}
1002
{
1000
NOSEL
1070
     0
1002
}
1002
{
1000
BEHIND
1070
     0
1002
}
1002
{
1000
OTHER
1070
     0
1002
}
1002
{
1000
REACTOR
1002
}
1001
GENIUS_GENHATCH_13
1002
{
1000
DATA
1040
45.0
1042
2.5
1000
_U
1070
     0
1011
4654.828631176321
1021
234.8169140511543
1031
0.0
1002
}
1002
{
1000
UCS
1010
0.0
1020
0.0
1030
0.0
1010
1.0
1020
0.0
1030
0.0
1010
0.0
1020
1.0
1030
0.0
1002
}
1001
HATCHBACKGROUNDCOLOR
1071
-939524096
1000

1000

  0
LINE
  5
1C9C9
330
1B896
100
AcDbEntity
  8
CONT_S_2
100
AcDbLine
 10
4656.877318411654
 20
251.0812708487583
 30
0.0
 11
4637.141000134762
 21
231.3449525718652
 31
0.0
1001
GENIUS_GENOBJ-N-HTC_13
1002
{
1000
OWNER
1000
GEN
1002
}
1001
GENIUS_GENODEF_13
1002
{
1000
HIER
1070
     0
1002
}
1002
{
1000
MANEDIT
1070
     0
1002
}
1002
{
1000
NOSEL
1070
     0
1002
}
1002
{
1000
BEHIND
1070
     0
1002
}
1002
{
1000
OTHER
1070
     0
1002
}
1002
{
1000
REACTOR
1002
}
1001
GENIUS_GENHATCH_13
1002
{
1000
DATA
1040
45.0
1042
2.5
1000
_U
1070
     0
1011
4654.828631176321
1021
234.8169140511543
1031
0.0
1002
}
1002
{
1000
UCS
1010
0.0
1020
0.0
1030
0.0
1010
1.0
1020
0.0
1030
0.0
1010
0.0
1020
1.0
1030
0.0
1002
}
1001
HATCHBACKGROUNDCOLOR
1071
-939524096
1000

1000

  0
LINE
  5
1C9CA
330
1B896
100
AcDbEntity
  8
CONT_S_2
100
AcDbLine
 10
4648.392037037416
 20
251.0812708487583
 30
0.0
 11
4637.141000134762
 21
239.8302339461039
 31
0.0
1001
GENIUS_GENOBJ-N-HTC_13
1002
{
1000
OWNER
1000
GEN
1002
}
1001
GENIUS_GENODEF_13
1002
{
1000
HIER
1070
     0
1002
}
1002
{
1000
MANEDIT
1070
     0
1002
}
1002
{
1000
NOSEL
1070
     0
1002
}
1002
{
1000
BEHIND
1070
     0
1002
}
1002
{
1000
OTHER
1070
     0
1002
}
1002
{
1000
REACTOR
1002
}
1001
GENIUS_GENHATCH_13
1002
{
1000
DATA
1040
45.0
1042
2.5
1000
_U
1070
     0
1011
4654.828631176321
1021
234.8169140511543
1031
0.0
1002
}
1002
{
1000
UCS
1010
0.0
1020
0.0
1030
0.0
1010
1.0
1020
0.0
1030
0.0
1010
0.0
1020
1.0
1030
0.0
1002
}
1001
HATCHBACKGROUNDCOLOR
1071
-939524096
1000

1000

  0
LINE
  5
1C9CB
330
1B896
100
AcDbEntity
  8
CONT_S_2
100
AcDbLine
 10
4639.906755663179
 20
251.0812708487583
 30
0.0
 11
4637.141000134762
 21
248.3155153203425
 31
0.0
1001
GENIUS_GENOBJ-N-HTC_13
1002
{
1000
OWNER
1000
GEN
1002
}
1001
GENIUS_GENODEF_13
1002
{
1000
HIER
1070
     0
1002
}
1002
{
1000
MANEDIT
1070
     0
1002
}
1002
{
1000
NOSEL
1070
     0
1002
}
1002
{
1000
BEHIND
1070
     0
1002
}
1002
{
1000
OTHER
1070
     0
1002
}
1002
{
1000
REACTOR
1002
}
1001
GENIUS_GENHATCH_13
1002
{
1000
DATA
1040
45.0
1042
2.5
1000
_U
1070
     0
1011
4654.828631176321
1021
234.8169140511543
1031
0.0
1002
}
1002
{
1000
UCS
1010
0.0
1020
0.0
1030
0.0
1010
1.0
1020
0.0
1030
0.0
1010
0.0
1020
1.0
1030
0.0
1002
}
1001
HATCHBACKGROUNDCOLOR
1071
-939524096
1000

1000

  0
TEXT
  5
1CB47
330
1B896
100
AcDbEntity
  8
AM_5
100
AcDbText
 10
4836.058266296006
 20
190.0076274264143
 30
0.0
 40
6.0
  1
ピボットヒンジ
 41
0.9
100
AcDbText
  0
LINE
  5
1CB48
330
1B896
100
AcDbEntity
  8
AM_5
100
AcDbLine
 10
4895.665689389411
 20
196.8338474501682
 30
0.0
 11
4882.441966592962
 21
188.4076274264142
 31
0.0
1001
ACAD
1000
DSTYLE
1002
{
1070
    40
1040
3.0
1070
   176
1070
     4
1070
    41
1040
1.5
1070
   147
1040
1.0
1070
    77
1070
     0
1002
}
  0
LINE
  5
1CB49
330
1B896
100
AcDbEntity
  8
AM_5
100
AcDbLine
 10
4834.058266296006
 20
188.4076274264142
 30
0.0
 11
4882.441966592962
 21
188.4076274264142
 31
0.0
1001
ACAD
1000
DSTYLE
1002
{
1070
    40
1040
3.0
1070
   176
1070
     4
1070
    41
1040
1.5
1070
   147
1040
1.0
1070
    77
1070
     0
1002
}
  0
LINE
  5
1CB4A
330
1B896
100
AcDbEntity
  8
AM_5
100
AcDbLine
 10
4896.073385747079
 20
196.2043367831064
 30
0.0
 11
4899.442753391782
 21
199.2800255961736
 31
0.0
210
0.0
220
0.0
230
-1.0
  0
LINE
  5
1CB4B
330
1B896
100
AcDbEntity
  8
AM_5
100
AcDbLine
 10
4895.257993031744
 20
197.46335811723
 30
0.0
 11
4899.442753391782
 21
199.2800255961736
 31
0.0
210
0.0
220
0.0
230
-1.0
  0
LINE
  5
1CB4C
330
1B896
100
AcDbEntity
  8
AM_5
100
AcDbLine
 10
4899.442753391782
 20
199.2800255961736
 30
0.0
 11
4895.665689389411
 21
196.8338474501682
 31
0.0
210
0.0
220
0.0
230
-1.0
  0
TEXT
  5
1CB4D
330
1B896
100
AcDbEntity
  8
AM_5
100
AcDbText
 10
4863.140570314895
 20
170.2201887034733
 30
0.0
 40
6.0
  1
下受け
 41
0.9
100
AcDbText
  0
LINE
  5
1CB4E
330
1B896
100
AcDbEntity
  8
AM_5
100
AcDbLine
 10
4892.960186038553
 20
175.4904776465776
 30
0.0
 11
4882.442987466695
 21
168.6201887034731
 31
0.0
1001
ACAD
1000
DSTYLE
1002
{
1070
    40
1040
3.0
1070
   176
1070
     4
1070
    41
1040
1.5
1070
   147
1040
1.0
1070
    77
1070
     0
1002
}
  0
LINE
  5
1CB4F
330
1B896
100
AcDbEntity
  8
AM_5
100
AcDbLine
 10
4861.140570314894
 20
168.6201887034731
 30
0.0
 11
4882.442987466695
 21
168.6201887034731
 31
0.0
1001
ACAD
1000
DSTYLE
1002
{
1070
    40
1040
3.0
1070
   176
1070
     4
1070
    41
1040
1.5
1070
   147
1040
1.0
1070
    77
1070
     0
1002
}
  0
LINE
  5
1CB50
330
1B896
100
AcDbEntity
  8
AM_5
100
AcDbLine
 10
4893.367882396221
 20
174.8609669795158
 30
0.0
 11
4896.737250040924
 21
177.936655792583
 31
0.0
210
0.0
220
0.0
230
-1.0
  0
LINE
  5
1CB51
330
1B896
100
AcDbEntity
  8
AM_5
100
AcDbLine
 10
4892.552489680886
 20
176.1199883136394
 30
0.0
 11
4896.737250040924
 21
177.936655792583
 31
0.0
210
0.0
220
0.0
230
-1.0
  0
LINE
  5
1CB52
330
1B896
100
AcDbEntity
  8
AM_5
100
AcDbLine
 10
4896.737250040924
 20
177.936655792583
 30
0.0
 11
4892.960186038553
 21
175.4904776465776
 31
0.0
210
0.0
220
0.0
230
-1.0
  0
VIEWPORT
  5
1B810
102
{ACAD_XDICTIONARY
360
1C967
102
}
330
1B892
100
AcDbEntity
 67
     1
  8
0
100
AcDbViewport
 10
219.1102749664252
 20
32.94755905506355
 30
0.0
 40
192.1439262016693
 41
94.52341437258136
 68
     2
 69
     1
1001
ACAD
1000
MVIEW
1002
{
1070
    16
1010
0.0
1020
0.0
1030
0.0
1010
0.0
1020
0.0
1030
1.0
1040
0.0
1040
94.52341437258136
1040
219.1102749664252
1040
32.94755905506355
1040
50.0
1040
0.0
1040
0.0
1070
    16
1070
   100
1070
     1
1070
     1
1070
     0
1070
     0
1070
     0
1070
     0
1040
0.0
1040
0.0
1040
0.0
1040
10.0
1040
10.0
1040
10.0
1040
10.0
1070
     0
1002
{
1002
}
1002
}
1001
GENIUS_GENOBJ-N-SDF_13
1002
{
1000
OWNER
1000
GEN
1002
}
1001
GENIUS_GENODEF_13
1002
{
1000
HIER
1070
     0
1002
}
1002
{
1000
MANEDIT
1070
     0
1002
}
1002
{
1000
NOSEL
1070
     0
1002
}
1002
{
1000
BEHIND
1070
     0
1002
}
1002
{
1000
OTHER
1070
     0
1002
}
1002
{
1000
REACTOR
1002
}
1001
GENIUS_GENSCREG_15
1000
PF
1040
1.0
1000
DF
1040
1.0
1000
MIN
1011
123.0383118655905
1021
-14.31414813122712
1031
0.0
1000
MAX
1011
315.1822380672598
1021
80.20926624135423
1031
0.0
1000
FLAGS
1070
     2
  0
VIEWPORT
  5
1B811
102
{ACAD_XDICTIONARY
360
1C969
102
}
330
1B892
100
AcDbEntity
 67
     1
  8
AM_0
100
AcDbViewport
 10
133.3499908447265
 20
101.5999970436096
 30
0.0
 40
429.1987358241462
 41
228.4221935424805
 68
     1
 69
     2
1001
ACAD
1000
MVIEW
1002
{
1070
    16
1010
0.0
1020
0.0
1030
0.0
1010
0.0
1020
0.0
1030
1.0
1040
0.0
1040
576.69270833791
1040
-202.0655327728323
1040
665.3552720770292
1040
50.0
1040
0.0
1040
0.0
1070
     0
1070
   100
1070
     1
1070
     1
1070
     0
1070
     0
1070
     0
1070
     0
1040
0.0
1040
0.0
1040
0.0
1040
5.0
1040
5.0
1040
20.0
1040
20.0
1070
     0
1002
{
1002
}
1002
}
1001
GENIUS_GENOBJ-N-SDF_13
1002
{
1000
OWNER
1000
GEN
1002
}
1001
GENIUS_GENODEF_13
1002
{
1000
HIER
1070
     0
1002
}
1002
{
1000
MANEDIT
1070
     0
1002
}
1002
{
1000
NOSEL
1070
     0
1002
}
1002
{
1000
BEHIND
1070
     0
1002
}
1002
{
1000
OTHER
1070
     0
1002
}
1002
{
1000
REACTOR
1002
}
1001
GENIUS_GENSCREG_15
1000
PF
1040
9.752589343509985
1000
DF
1040
1.0
1000
MIN
1011
-81.24937706734659
1021
-12.61109972763063
1031
0.0
1000
MAX
1011
347.9493587567997
1021
215.8110938148498
1031
0.0
1000
FLAGS
1070
     2
  0
ENDSEC
  0
SECTION
  2
OBJECTS
  0
DICTIONARY
  5
1B86C
330
0
100
AcDbDictionary
  3
ACAD_2007HEADERVARS_RT
350
1C965
  3
ACAD_COLOR
350
1B88F
  3
ACAD_GROUP
350
1B86D
  3
ACAD_LAYOUT
350
1B88E
  3
ACAD_MATERIAL
350
1B870
  3
ACAD_MLINESTYLE
350
1B88B
  3
ACAD_PLOTSETTINGS
350
1B88D
  3
ACAD_TABLESTYLE
350
1B890
  3
ACAD_VISUALSTYLE
350
1B874
  3
ACMDICTIONARY
350
1B979
  3
AMG
350
1B921
  3
AMGSNAPSETTINGS
350
1B9AE
  3
DWGPROPS
350
1C964
1001
ACAD
1000
TREAT_AS_HARD
1070
     0
  0
DICTIONARY
  5
1BB85
330
1B868
100
AcDbDictionary
  3
ACAD_XREC_ROUNDTRIP
350
1C96B
1001
ACAD
1000
TREAT_AS_HARD
1070
     1
  0
DICTIONARY
  5
1B9CE
330
1B862
100
AcDbDictionary
  3
ACAD_LAYERFILTERS
350
1BD4D
  3
ACAD_LAYERSTATES
350
1B9CF
  3
ACLYDICTIONARY
350
1BD4C
1001
ACAD
1000
TREAT_AS_HARD
1070
     1
  0
DICTIONARY
  5
1C972
330
1B885
100
AcDbDictionary
  3
ACAD_XREC_ROUNDTRIP
350
1C973
1001
ACAD
1000
TREAT_AS_HARD
1070
     1
  0
DICTIONARY
  5
1C986
330
1B905
100
AcDbDictionary
  3
ACAD_XREC_ROUNDTRIP
350
1C987
1001
ACAD
1000
TREAT_AS_HARD
1070
     1
  0
DICTIONARY
  5
1C988
330
1B906
100
AcDbDictionary
  3
ACAD_XREC_ROUNDTRIP
350
1C989
1001
ACAD
1000
TREAT_AS_HARD
1070
     1
  0
DICTIONARY
  5
1C98A
330
1B907
100
AcDbDictionary
  3
ACAD_XREC_ROUNDTRIP
350
1C98B
1001
ACAD
1000
TREAT_AS_HARD
1070
     1
  0
DICTIONARY
  5
1C98C
330
1B908
100
AcDbDictionary
  3
ACAD_XREC_ROUNDTRIP
350
1C98D
1001
ACAD
1000
TREAT_AS_HARD
1070
     1
  0
DICTIONARY
  5
1C98E
330
1B909
100
AcDbDictionary
  3
ACAD_XREC_ROUNDTRIP
350
1C98F
1001
ACAD
1000
TREAT_AS_HARD
1070
     1
  0
DICTIONARY
  5
1C990
330
1B90A
100
AcDbDictionary
  3
ACAD_XREC_ROUNDTRIP
350
1C991
1001
ACAD
1000
TREAT_AS_HARD
1070
     1
  0
DICTIONARY
  5
1C992
330
1B90B
100
AcDbDictionary
  3
ACAD_XREC_ROUNDTRIP
350
1C993
1001
ACAD
1000
TREAT_AS_HARD
1070
     1
  0
DICTIONARY
  5
1C994
330
1B90C
100
AcDbDictionary
  3
ACAD_XREC_ROUNDTRIP
350
1C995
1001
ACAD
1000
TREAT_AS_HARD
1070
     1
  0
DICTIONARY
  5
1C996
330
1B90D
100
AcDbDictionary
  3
ACAD_XREC_ROUNDTRIP
350
1C997
1001
ACAD
1000
TREAT_AS_HARD
1070
     1
  0
DICTIONARY
  5
1C998
330
1B90E
100
AcDbDictionary
  3
ACAD_XREC_ROUNDTRIP
350
1C999
1001
ACAD
1000
TREAT_AS_HARD
1070
     1
  0
DICTIONARY
  5
1BA51
330
1BA50
100
AcDbDictionary
  3
ACAD_XREC_ROUNDTRIP
350
1C99A
  3
ADSK_XREC_LAYER_RECONCILED
350
1BA52
1001
ACAD
1000
TREAT_AS_HARD
1070
     1
  0
DICTIONARY
  5
1C97A
330
1B8AE
100
AcDbDictionary
  3
ACAD_XREC_ROUNDTRIP
350
1C97B
1001
ACAD
1000
TREAT_AS_HARD
1070
     1
  0
DICTIONARY
  5
1C97C
330
1B8AF
100
AcDbDictionary
  3
ACAD_XREC_ROUNDTRIP
350
1C97D
1001
ACAD
1000
TREAT_AS_HARD
1070
     1
  0
DICTIONARY
  5
1C97E
330
1B8B0
100
AcDbDictionary
  3
ACAD_XREC_ROUNDTRIP
350
1C97F
1001
ACAD
1000
TREAT_AS_HARD
1070
     1
  0
DICTIONARY
  5
1C980
330
1B8B1
100
AcDbDictionary
  3
ACAD_XREC_ROUNDTRIP
350
1C981
1001
ACAD
1000
TREAT_AS_HARD
1070
     1
  0
DICTIONARY
  5
1C982
330
1B8B2
100
AcDbDictionary
  3
ACAD_XREC_ROUNDTRIP
350
1C983
1001
ACAD
1000
TREAT_AS_HARD
1070
     1
  0
DICTIONARY
  5
1C984
330
1B8B3
100
AcDbDictionary
  3
ACAD_XREC_ROUNDTRIP
350
1C985
1001
ACAD
1000
TREAT_AS_HARD
1070
     1
  0
DICTIONARY
  5
1B9BD
330
1B896
100
AcDbDictionary
  3
ACAD_LAYOUTSELFREF
350
1CBA9
  3
ACAD_SORTENTS
350
1B9BE
1001
ACAD
1000
TREAT_AS_HARD
1070
     1
  0
DICTIONARY
  5
1CBA7
330
1B892
100
AcDbDictionary
  3
ACAD_LAYOUTSELFREF
350
1CBA8
  0
DICTIONARY
  5
1C967
330
1B810
100
AcDbDictionary
  3
ACAD_XREC_ROUNDTRIP
350
1C968
1001
ACAD
1000
TREAT_AS_HARD
1070
     1
  0
DICTIONARY
  5
1C969
330
1B811
100
AcDbDictionary
  3
ACAD_XREC_ROUNDTRIP
350
1C96A
1001
ACAD
1000
TREAT_AS_HARD
1070
     1
  0
DICTIONARY
  5
1C965
102
{ACAD_REACTORS
330
1B86C
102
}
330
1B86C
100
AcDbDictionary
  3
DIMARCSYM
350
1C966
1001
ACAD
1000
TREAT_AS_HARD
1070
     0
  0
DICTIONARY
  5
1B88F
102
{ACAD_REACTORS
330
1B86C
102
}
330
1B86C
100
AcDbDictionary
1001
ACAD
1000
TREAT_AS_HARD
1070
     0
  0
DICTIONARY
  5
1B86D
102
{ACAD_REACTORS
330
1B86C
102
}
330
1B86C
100
AcDbDictionary
1001
ACAD
1000
TREAT_AS_HARD
1070
     0
  0
DICTIONARY
  5
1B88E
102
{ACAD_REACTORS
330
1B86C
102
}
330
1B86C
100
AcDbDictionary
1001
ACAD
1000
TREAT_AS_HARD
1070
     0
  0
DICTIONARY
  5
1B870
102
{ACAD_REACTORS
330
1B86C
102
}
330
1B86C
100
AcDbDictionary
  3
BYBLOCK
350
1B872
  3
BYLAYER
350
1B871
  3
GLOBAL
350
1B873
1001
ACAD
1000
TREAT_AS_HARD
1070
     0
  0
DICTIONARY
  5
1B88B
102
{ACAD_REACTORS
330
1B86C
102
}
330
1B86C
100
AcDbDictionary
  3
STANDARD
350
1B88C
1001
ACAD
1000
TREAT_AS_HARD
1070
     0
  0
DICTIONARY
  5
1B88D
102
{ACAD_REACTORS
330
1B86C
102
}
330
1B86C
100
AcDbDictionary
1001
ACAD
1000
TREAT_AS_HARD
1070
     0
  0
DICTIONARY
  5
1B890
102
{ACAD_REACTORS
330
1B86C
102
}
330
1B86C
100
AcDbDictionary
  3
STANDARD
350
1B891
1001
ACAD
1000
TREAT_AS_HARD
1070
     0
  0
DICTIONARY
  5
1B874
102
{ACAD_REACTORS
330
1B86C
102
}
330
1B86C
100
AcDbDictionary
  3
2DWIREFRAME
350
1B87A
  3
3D_HIDDEN
350
1B87C
  3
3DWIREFRAME
350
1B87B
  3
BASIC
350
1B879
  3
BRIGHTEN
350
1B880
  3
COLORCHANGE
350
1B884
  3
CONCEPTUAL
350
1B87D
  3
DIM
350
1B87F
  3
FACEPATTERN
350
1B883
  3
FLAT
350
1B875
  3
FLATWITHEDGES
350
1B876
  3
GOURAUD
350
1B877
  3
GOURAUDWITHEDGES
350
1B878
  3
LINEPATTERN
350
1B882
  3
REALISTIC
350
1B87E
  3
THICKEN
350
1B881
1001
ACAD
1000
TREAT_AS_HARD
1070
     0
  0
DICTIONARY
  5
1B979
102
{ACAD_REACTORS
330
1B86C
102
}
330
1B86C
100
AcDbDictionary
  3
ACMSTDDICTIONARY
350
1B984
  3
AMDTSECTSYM_ARROWCOLOR
350
1B99D
1001
ACAD
1000
TREAT_AS_HARD
1070
     0
  0
DICTIONARY
  5
1B921
102
{ACAD_REACTORS
330
1B86C
102
}
330
1B86C
100
AcDbDictionary
1001
ACAD
1000
TREAT_AS_HARD
1070
     0
  0
DICTIONARY
  5
1B9AE
102
{ACAD_REACTORS
330
1B86C
102
}
330
1B86C
100
AcDbDictionary
1001
ACAD
1000
TREAT_AS_HARD
1070
     0
  0
XRECORD
  5
1C964
102
{ACAD_REACTORS
330
1B86C
102
}
330
1B86C
100
AcDbXrecord
  1
DWGPROPS COOKIE
  2

  3

  4

  6

  7

  8
c-ikeda
  9

300
=
301
=
302
=
303
=
304
=
305
=
306
=
307
=
308
=
309
=
 40
0.8522300694444444
 41
2454489.086194294
 42
2460349.597263634
  1

 90
        0
  0
XRECORD
  5
1C96B
102
{ACAD_REACTORS
330
1BB85
102
}
330
1BB85
100
AcDbXrecord
102
VTR_0.000_0.000_1.000_1.000_VISUALSTYLE
340
1B87A
102
VTR_0.000_0.000_1.000_1.000_GRIDDISPLAY
 70
     3
102
VTR_0.000_0.000_1.000_1.000_GRIDMAJOR
 70
     5
102
VTR_0.000_0.000_1.000_1.000_DEFAULTLIGHTING
280
     1
102
VTR_0.000_0.000_1.000_1.000_DEFAULTLIGHTINGTYPE
 70
     0
102
VTR_0.000_0.000_1.000_1.000_BRIGHTNESS
141
0.0
102
VTR_0.000_0.000_1.000_1.000_CONTRAST
142
0.0
  0
DICTIONARY
  5
1BD4D
102
{ACAD_REACTORS
330
1B9CE
102
}
330
1B9CE
100
AcDbDictionary
1001
ACAD
1000
TREAT_AS_HARD
1070
     0
  0
DICTIONARY
  5
1B9CF
102
{ACAD_REACTORS
330
1B9CE
102
}
330
1B9CE
100
AcDbDictionary
1001
ACAD
1000
TREAT_AS_HARD
1070
     0
  0
DICTIONARY
  5
1BD4C
102
{ACAD_REACTORS
330
1B9CE
102
}
330
1B9CE
100
AcDbDictionary
1001
ACAD
1000
<All
1000
TREAT_AS_HARD
1070
     0
  0
XRECORD
  5
1C973
102
{ACAD_REACTORS
330
1C972
102
}
330
1C972
100
AcDbXrecord
102
MATERIAL
340
1B873
  0
XRECORD
  5
1C987
102
{ACAD_REACTORS
330
1C986
102
}
330
1C986
100
AcDbXrecord
102
MATERIAL
340
1B873
  0
XRECORD
  5
1C989
102
{ACAD_REACTORS
330
1C988
102
}
330
1C988
100
AcDbXrecord
102
MATERIAL
340
1B873
  0
XRECORD
  5
1C98B
102
{ACAD_REACTORS
330
1C98A
102
}
330
1C98A
100
AcDbXrecord
102
MATERIAL
340
1B873
  0
XRECORD
  5
1C98D
102
{ACAD_REACTORS
330
1C98C
102
}
330
1C98C
100
AcDbXrecord
102
MATERIAL
340
1B873
  0
XRECORD
  5
1C98F
102
{ACAD_REACTORS
330
1C98E
102
}
330
1C98E
100
AcDbXrecord
102
MATERIAL
340
1B873
  0
XRECORD
  5
1C991
102
{ACAD_REACTORS
330
1C990
102
}
330
1C990
100
AcDbXrecord
102
MATERIAL
340
1B873
  0
XRECORD
  5
1C993
102
{ACAD_REACTORS
330
1C992
102
}
330
1C992
100
AcDbXrecord
102
MATERIAL
340
1B873
  0
XRECORD
  5
1C995
102
{ACAD_REACTORS
330
1C994
102
}
330
1C994
100
AcDbXrecord
102
MATERIAL
340
1B873
  0
XRECORD
  5
1C997
102
{ACAD_REACTORS
330
1C996
102
}
330
1C996
100
AcDbXrecord
102
MATERIAL
340
1B873
  0
XRECORD
  5
1C999
102
{ACAD_REACTORS
330
1C998
102
}
330
1C998
100
AcDbXrecord
102
MATERIAL
340
1B873
  0
XRECORD
  5
1C99A
102
{ACAD_REACTORS
330
1BA51
102
}
330
1BA51
100
AcDbXrecord
102
MATERIAL
340
1B873
  0
XRECORD
  5
1BA52
102
{ACAD_REACTORS
330
1BA51
102
}
330
1BA51
100
AcDbXrecord
290
     0
  0
XRECORD
  5
1C97B
102
{ACAD_REACTORS
330
1C97A
102
}
330
1C97A
100
AcDbXrecord
102
CAMERAPLOTTABLE
 70
     0
102
VISUALSTYLENONE
 70
     1
  0
XRECORD
  5
1C97D
102
{ACAD_REACTORS
330
1C97C
102
}
330
1C97C
100
AcDbXrecord
102
CAMERAPLOTTABLE
 70
     0
102
VISUALSTYLENONE
 70
     1
  0
XRECORD
  5
1C97F
102
{ACAD_REACTORS
330
1C97E
102
}
330
1C97E
100
AcDbXrecord
102
CAMERAPLOTTABLE
 70
     0
102
VISUALSTYLENONE
 70
     1
  0
XRECORD
  5
1C981
102
{ACAD_REACTORS
330
1C980
102
}
330
1C980
100
AcDbXrecord
102
CAMERAPLOTTABLE
 70
     0
102
VISUALSTYLENONE
 70
     1
  0
XRECORD
  5
1C983
102
{ACAD_REACTORS
330
1C982
102
}
330
1C982
100
AcDbXrecord
102
CAMERAPLOTTABLE
 70
     0
102
VISUALSTYLENONE
 70
     1
  0
XRECORD
  5
1C985
102
{ACAD_REACTORS
330
1C984
102
}
330
1C984
100
AcDbXrecord
102
CAMERAPLOTTABLE
 70
     0
102
VISUALSTYLENONE
 70
     1
  0
XRECORD
  5
1CBA9
102
{ACAD_REACTORS
330
1B9BD
102
}
330
1B9BD
100
AcDbXrecord
340
1B896
  0
SORTENTSTABLE
  5
1B9BE
102
{ACAD_REACTORS
330
1B9BD
102
}
330
1B9BD
100
AcDbSortentsTable
330
1B896
331
1B5E1
  5
1B5E3
331
1B5E8
  5
1B5EA
331
1B5EF
  5
1B5F1
331
1B5F6
  5
1B5F8
331
1B5F8
  5
1B5FA
331
1B5DE
  5
1B5E0
331
1B5E5
  5
1B5E7
331
1B5EC
  5
1B5EE
331
1B5F3
  5
1B5F5
331
1B5F9
  5
1B5FB
331
1B5E9
  5
1B5EB
331
1B5F0
  5
1B5F2
331
1B5F7
  5
1B5F9
331
1B5E2
  5
1B5E4
331
1B5DF
  5
1B5E1
331
1B5E6
  5
1B5E8
331
1B5ED
  5
1B5EF
331
1B5F4
  5
1B5F6
331
1B5E3
  5
1B5E5
331
1B5F1
  5
1B5F3
331
1B5EA
  5
1B5EC
331
1B5E0
  5
1B5E2
331
1B5E7
  5
1B5E9
331
1B5EE
  5
1B5F0
331
1B5F5
  5
1B5F7
331
1B5E4
  5
1B5E6
331
1B5EB
  5
1B5ED
331
1B5F2
  5
1B5F4
  0
XRECORD
  5
1CBA8
102
{ACAD_REACTORS
330
1CBA7
102
}
330
1CBA7
100
AcDbXrecord
340
1B892
  0
XRECORD
  5
1C968
102
{ACAD_REACTORS
330
1C967
102
}
330
1C967
100
AcDbXrecord
102
SHADEPLOT
 70
     0
102
VISUALSTYLE
340
1B87A
102
GRIDDISPLAY
 70
     0
102
GRIDMAJOR
 70
     5
102
DEFAULTLIGHTING
280
     1
102
DEFAULTLIGHTINGTYPE
 70
     1
102
BRIGHTNESS
141
0.0
102
CONTRAST
142
0.0
  0
XRECORD
  5
1C96A
102
{ACAD_REACTORS
330
1C969
102
}
330
1C969
100
AcDbXrecord
102
SHADEPLOT
 70
     0
102
VISUALSTYLE
340
1B87A
102
GRIDDISPLAY
 70
     0
102
GRIDMAJOR
 70
     5
102
DEFAULTLIGHTING
280
     1
102
DEFAULTLIGHTINGTYPE
 70
     1
102
BRIGHTNESS
141
0.0
102
CONTRAST
142
0.0
  0
XRECORD
  5
1C966
102
{ACAD_REACTORS
330
1C965
102
}
330
1C965
100
AcDbXrecord
 70
     1
  0
ACAD_ZOMBIE_OBJECT
  5
1B872
102
{ACAD_XDICTIONARY
360
1C96E
102
}
102
{ACAD_REACTORS
330
1B870
102
}
330
1B870
100
AcDbZombieObject
 90
      499
 91
      593
 93
      582
310
42109E509B1BD8DAC02004014040405AA6A9AA4060050101016A9AA6A9018000000000000E03F4040405AA6A9AA40650101016A9AA6A90190101016A9AA6A90194040405AA6A9AA400
 94
        0
1001
ACAD
1000
AcadProxyRoundTripData
1071
      501
1071
   917527
1070
     0
  0
ACAD_ZOMBIE_OBJECT
  5
1B871
102
{ACAD_XDICTIONARY
360
1C96C
102
}
102
{ACAD_REACTORS
330
1B870
102
}
330
1B870
100
AcDbZombieObject
 90
      499
 91
      593
 93
      582
310
42109E53185E595C802004014040405AA6A9AA4060050101016A9AA6A9018000000000000E03F4040405AA6A9AA40650101016A9AA6A90190101016A9AA6A90194040405AA6A9AA400
 94
        0
1001
ACAD
1000
AcadProxyRoundTripData
1071
      501
1071
   917527
1070
     0
  0
ACAD_ZOMBIE_OBJECT
  5
1B873
102
{ACAD_XDICTIONARY
360
1C970
102
}
102
{ACAD_REACTORS
330
1B870
102
}
330
1B870
100
AcDbZombieObject
 90
      499
 91
      593
 93
      574
310
41D1DB1BD8985B002004014040405AA6A9AA4060050101016A9AA6A9018000000000000E03F4040405AA6A9AA40650101016A9AA6A90190101016A9AA6A90194040405AA6A9AA400
 94
        0
1001
ACAD
1000
AcadProxyRoundTripData
1071
      501
1071
   917527
1070
     0
  0
MLINESTYLE
  5
1B88C
102
{ACAD_REACTORS
330
1B88B
102
}
330
1B88B
100
AcDbMlineStyle
  2
STANDARD
 70
     0
  3

 62
   256
 51
90.0
 52
90.0
 71
     2
 49
0.5
 62
   256
  6
BYLAYER
 49
-0.5
 62
   256
  6
BYLAYER
  0
ACAD_ZOMBIE_OBJECT
  5
1B891
102
{ACAD_XDICTIONARY
360
1C974
102
}
102
{ACAD_REACTORS
330
1B890
102
}
330
1B890
100
AcDbZombieObject
 90
      499
 91
      593
 93
     1849
310
4254DD185B99185C990028B81E85EB51B8AE3F2E07A17AD46E2B8FC02B5E8DC0F42B1CFD028000000C1008070000C3001FDFF8000000C1003FBFF000000182007F7FE00000030400FEFFC00000060801FDFF8000000C1003FBFF00000018200000000000000681FA0B0000001820100E000186003FBFF000000182007F7FE0
310
0000030400FEFFC00000060801FDFF8000000C1003FBFF000000182007F7FE000000304000AD7A3703D0AC73F4160000003040201C00030C007F7FE00000030400FEFFC00000060801FDFF8000000C1003FBFF000000182007F7FE00000030400FEFFC000000608000
340
1B886
340
1B886
340
1B886
 94
        0
1001
ACAD
1000
AcadProxyRoundTripData
1071
      503
1071
   917527
1070
     0
  0
ACAD_ZOMBIE_OBJECT
  5
1B87A
102
{ACAD_REACTORS
330
1B874
102
}
330
1B874
100
AcDbZombieObject
 90
      499
 91
      593
 93
      444
310
430C9915DA5C99599C985B59401049028333333333333E3BF0000000000000FB0107901411070040501600405405064090741402480A0340
 94
        0
1001
ACAD
1000
AcDbSavedByObjectVersion
1070
     0
1000
AcadProxyRoundTripData
1071
      502
1071
   917527
1070
     0
  0
ACAD_ZOMBIE_OBJECT
  5
1B87C
102
{ACAD_REACTORS
330
1B874
102
}
330
1B874
100
AcDbZombieObject
 90
      499
 91
      593
 93
      508
310
428CD108121A5919195B8010640502408333333333333E3BF0000000000000FB01079024090700405020000000000001110200405405064090740C02480A0344
 94
        0
1001
ACAD
1000
AcDbSavedByObjectVersion
1070
     0
1000
AcadProxyRoundTripData
1071
      502
1071
   917527
1070
     0
  0
ACAD_ZOMBIE_OBJECT
  5
1B87B
102
{ACAD_REACTORS
330
1B874
102
}
330
1B874
100
AcDbZombieObject
 90
      499
 91
      593
 93
      444
310
430CD915DA5C99599C985B59401059028333333333333E3BF0000000000000FB0107901411070040501600405405064090741402480A0340
 94
        0
1001
ACAD
1000
AcDbSavedByObjectVersion
1070
     0
1000
AcadProxyRoundTripData
1071
      502
1071
   917527
1070
     0
  0
ACAD_ZOMBIE_OBJECT
  5
1B879
102
{ACAD_REACTORS
330
1B874
102
}
330
1B874
100
AcDbZombieObject
 90
      499
 91
      593
 93
      396
310
4190985CDA58C0107406404333333333333E3BF0000000000000FB0107A41107004050150841D405064090741402480A0356
 94
        0
1001
ACAD
1000
AcDbSavedByObjectVersion
1070
     0
1000
AcadProxyRoundTripData
1071
      502
1071
   917527
1070
     0
  0
ACAD_ZOMBIE_OBJECT
  5
1B880
102
{ACAD_REACTORS
330
1B874
102
}
330
1B874
100
AcDbZombieObject
 90
      499
 91
      593
 93
      436
310
42509C9A59DA1D195B8010C409028333333333333E3BF0000000000000FB010790141107004050150841D405064090741402480A029956
 94
        0
1001
ACAD
1000
AcDbSavedByObjectVersion
1070
     0
1000
AcadProxyRoundTripData
1071
      502
1071
   917527
1070
     0
  0
ACAD_ZOMBIE_OBJECT
  5
1B884
102
{ACAD_REACTORS
330
1B874
102
}
330
1B874
100
AcDbZombieObject
 90
      499
 91
      593
 93
      460
310
4310DBDB1BDC90DA185B99D9401104090240C333333333333E3BF0000000000000FB0108901411070040501508421405064090741402480A0354
 94
        0
1001
ACAD
1000
AcDbSavedByObjectVersion
1070
     0
1000
AcadProxyRoundTripData
1071
      502
1071
   917527
1070
     0
  0
ACAD_ZOMBIE_OBJECT
  5
1B87D
102
{ACAD_REACTORS
330
1B874
102
}
330
1B874
100
AcDbZombieObject
 90
      499
 91
      593
 93
      508
310
42D0DBDB98D95C1D1D585B0010940D028333333333333E3BF0000000000000FB0107902409070040501000000000000111010841D405064090740C02480A0344
 94
        0
1001
ACAD
1000
AcDbSavedByObjectVersion
1070
     0
1000
AcadProxyRoundTripData
1071
      502
1071
   917527
1070
     0
  0
ACAD_ZOMBIE_OBJECT
  5
1B87F
102
{ACAD_REACTORS
330
1B874
102
}
330
1B874
100
AcDbZombieObject
 90
      499
 91
      593
 93
      420
310
41111A5B4010B409028333333333333E3BF0000000000000FB010790141107004050150841D405064090741402480A02677FFFFFDB
 94
        0
1001
ACAD
1000
AcDbSavedByObjectVersion
1070
     0
1000
AcadProxyRoundTripData
1071
      502
1071
   917527
1070
     0
  0
ACAD_ZOMBIE_OBJECT
  5
1B883
102
{ACAD_REACTORS
330
1B874
102
}
330
1B874
100
AcDbZombieObject
 90
      499
 91
      593
 93
      452
310
43119858D95C185D1D195C9B8010F409028333333333333E3BF0000000000000FB010790141107004050150841D405064090741402480A0350
 94
        0
1001
ACAD
1000
AcDbSavedByObjectVersion
1070
     0
1000
AcadProxyRoundTripData
1071
      502
1071
   917527
1070
     0
  0
ACAD_ZOMBIE_OBJECT
  5
1B875
102
{ACAD_REACTORS
330
1B874
102
}
330
1B874
100
AcDbZombieObject
 90
      499
 91
      593
 93
      396
310
41519B185D00240901404333333333333E3BF0000000000000F9010740A41107004050150841D405064090741402480A1B56
 94
        0
1001
ACAD
1000
AcDbSavedByObjectVersion
1070
     0
1000
AcadProxyRoundTripData
1071
      502
1071
   917527
1070
     0
  0
ACAD_ZOMBIE_OBJECT
  5
1B876
102
{ACAD_REACTORS
330
1B874
102
}
330
1B874
100
AcDbZombieObject
 90
      499
 91
      593
 93
      484
310
43919B185D15DA5D1A115919D95CC010140901404333333333333E3BF0000000000000F9010740901411070040501600405405064090741402480A1B56
 94
        0
1001
ACAD
1000
AcDbSavedByObjectVersion
1070
     0
1000
AcadProxyRoundTripData
1071
      502
1071
   917527
1070
     0
  0
ACAD_ZOMBIE_OBJECT
  5
1B877
102
{ACAD_REACTORS
330
1B874
102
}
330
1B874
100
AcDbZombieObject
 90
      499
 91
      593
 93
      420
310
4211DBDD5C985D590010240902404333333333333E3BF0000000000000F9010740A411070040501641D405064090741402480A1B50
 94
        0
1001
ACAD
1000
AcDbSavedByObjectVersion
1070
     0
1000
AcadProxyRoundTripData
1071
      502
1071
   917527
1070
     0
  0
ACAD_ZOMBIE_OBJECT
  5
1B878
102
{ACAD_REACTORS
330
1B874
102
}
330
1B874
100
AcDbZombieObject
 90
      499
 91
      593
 93
      508
310
4451DBDD5C985D5915DA5D1A115919D95CC010340902404333333333333E3BF0000000000000F9010740901411070040501600405405064090741402480A1B54
 94
        0
1001
ACAD
1000
AcDbSavedByObjectVersion
1070
     0
1000
AcadProxyRoundTripData
1071
      502
1071
   917527
1070
     0
  0
ACAD_ZOMBIE_OBJECT
  5
1B882
102
{ACAD_REACTORS
330
1B874
102
}
330
1B874
100
AcDbZombieObject
 90
      499
 91
      593
 93
      452
310
43131A5B995C185D1D195C9B8010E409028333333333333E3BF0000000000000FB010790141107004050750841D405064090741402483A0350
 94
        0
1001
ACAD
1000
AcDbSavedByObjectVersion
1070
     0
1000
AcadProxyRoundTripData
1071
      502
1071
   917527
1070
     0
  0
ACAD_ZOMBIE_OBJECT
  5
1B87E
102
{ACAD_REACTORS
330
1B874
102
}
330
1B874
100
AcDbZombieObject
 90
      499
 91
      593
 93
      428
310
429499585B1A5CDD1A58C0108409028333333333333E3BF0000000000000FB01079019070040501508421405064090741402480A1B45
 94
        0
1001
ACAD
1000
AcDbSavedByObjectVersion
1070
     0
1000
AcadProxyRoundTripData
1071
      502
1071
   917527
1070
     0
  0
ACAD_ZOMBIE_OBJECT
  5
1B881
102
{ACAD_REACTORS
330
1B874
102
}
330
1B874
100
AcDbZombieObject
 90
      499
 91
      593
 93
      420
310
42151A1A58DAD95B8010D409028333333333333E3BF0000000000000FB010790141107004050150C41D405064090741402480A0352
 94
        0
1001
ACAD
1000
AcDbSavedByObjectVersion
1070
     0
1000
AcadProxyRoundTripData
1071
      502
1071
   917527
1070
     0
  0
DICTIONARY
  5
1B984
102
{ACAD_REACTORS
330
1B979
102
}
330
1B979
100
AcDbDictionary
1001
ACAD
1000
TREAT_AS_HARD
1070
     0
  0
XRECORD
  5
1B99D
102
{ACAD_REACTORS
330
1B979
102
}
330
1B979
100
AcDbXrecord
 90
-1023410169
  0
DICTIONARY
  5
1C96E
330
1B872
100
AcDbDictionary
  3
ACAD_XREC_ROUNDTRIP
350
1C96F
1001
ACAD
1000
TREAT_AS_HARD
1070
     1
  0
DICTIONARY
  5
1C96C
330
1B871
100
AcDbDictionary
  3
ACAD_XREC_ROUNDTRIP
350
1C96D
1001
ACAD
1000
TREAT_AS_HARD
1070
     1
  0
DICTIONARY
  5
1C970
330
1B873
100
AcDbDictionary
  3
ACAD_XREC_ROUNDTRIP
350
1C971
1001
ACAD
1000
TREAT_AS_HARD
1070
     1
  0
DICTIONARY
  5
1C974
330
1B891
100
AcDbDictionary
  3
ACAD_XREC_ROUNDTRIP
350
1C975
1001
ACAD
1000
TREAT_AS_HARD
1070
     1
  0
XRECORD
  5
1C96F
102
{ACAD_REACTORS
330
1C96E
102
}
330
1C96E
100
AcDbXrecord
102
MATERIAL
148
0.0
149
0.0
149
0.0
 93
        0
 94
       63
282
     0
 72
     1
 77
     1
171
     1
175
     1
179
     1
273
     0
  0
XRECORD
  5
1C96D
102
{ACAD_REACTORS
330
1C96C
102
}
330
1C96C
100
AcDbXrecord
102
MATERIAL
148
0.0
149
0.0
149
0.0
 93
        0
 94
       63
282
     0
 72
     1
 77
     1
171
     1
175
     1
179
     1
273
     0
  0
XRECORD
  5
1C971
102
{ACAD_REACTORS
330
1C970
102
}
330
1C970
100
AcDbXrecord
102
MATERIAL
148
0.0
149
0.0
149
0.0
 93
        0
 94
       63
282
     0
 72
     1
 77
     1
171
     1
175
     1
179
     1
273
     0
  0
XRECORD
  5
1C975
102
{ACAD_REACTORS
330
1C974
102
}
330
1C974
100
AcDbXrecord
102
ACAD_ROUNDTRIP_PRE2007_TABLESTYLE
 90
      512
 91
        0
  1

 92
      512
 93
        0
  2

 94
      512
 95
        0
  3

  0
ENDSEC
  0
EOF
